Nirvana - All Apologies Chords & Tabs

 

All Apologies Chords & Tabs

Nirvana Chords & Tabs

Version: 1 Type: Tab 6 ratings
1 star 2 stars 3 stars 4 stars 5 stars
comments

All Apologies Tab

   
if u have any problems email me and i'll sort them out
atee80@aol.comAll Apologies

TUNING: Low/High Db Ab Db Gb Bb Eb

Eb ----------------------|-----------------------|----------------------|-
Bb ----------------------|-----------------------|----------------------|-
Gb ----------------------|-----------------------|----------------------|-
Db ----------------------|---------9\12-12-9-10--|----------------------|-
Ab ---9-10-9\12-12-9-10--|--9-10-9---------------|---9-10-9\12-12-9-10--|-
Db -0--------------------|0----------------------|-0--------------------|-


Eb ---------------------|-
Bb ---------------------|-
Gb ----------11-11-9----|-
Db ------------------12-|-
Ab ---9-10-9------------|-
Db -0-------------------|-

That's the main riff.. Then the Chorus (According to Billy):

Eb ----------------------------------------|-
Bb ----------------------------------------|-
Gb ----------------------------------------|-
Db -5-5-5--0-5-5-5--0-5-5-5--0-5-5-5--0--7-|-
Ab -5-5-5--0-5-5-5--0-5-5-5--0-5-5-5--0--7-|-
Db -5-5-5--0-5-5-5--0-5-5-5--0-5-5-5--0--7-|-

*****Then the Chorus (According to Pete) 

Eb ----------------------------------------|-
Bb ----------------------------------------|-
Gb --------------------------------------2-|-
Db -5-5-5--0-5-5-5--0-5-5-5--0-5-5-5--0--2-|-
Ab -5-5-5--0-5-5-5--0-5-5-5--0-5-5-5--0--0-|-
Db -5-5-5--0-5-5-5--0-5-5-5--0-5-5-5--0--0-|-

All in all is all we are * # * # * # etc.
[ Tab from: http://www.guitartabs.cc/tabs/n/nirvana/all_apologies_tab.html ]
     |       |       |       |          |       |       |       |
* |----------------------------------|-----------------------------------|
  |----------------------------------|-----------------------------------|
  |----------------------------------|-----------------/6---6---4---3----|
  |------3---4---3--/6---6---4---3---|------3---4---3--------------------|
  |--4-------------------------------|--4--------------------------------|
  |----------------------------------|-----------------------------------|

   |       |       |       |          |       |       |       |
# |----------------------------------|-----------------------------------|
  |----------------------------------|-----------------/6---6---4---2----|
  |----------------------------------|-----------------------------------|
  |------3---4---3--/6---6---4---3---|------3---4---3--------------------|
  |--4-------------------------------|--4--------------------------------|
  |----------------------------------|-----------------------------------|

   |       |       |       |          |       |       |       |
% |----------------------------------|-----------------------------------|
  |----------------------------------|-------------------/6---6----------|
  |----------------------------------|-----------------------------------|
  |------3---4---3--/6---6---4---3---|------3---4---3--------------------|
  |--4-------------------------------|--4--------------------------------|
  |----------------------------------|-----------------------------------|


               |-----|-----|-----|-----|   
               |-----|-----|-----|-----|     Play this the last time
               |-----|-----|-----|-----|       
$ Cello bit:   |--9--|--6--|--9--|--11-| *2 |--9--|--6--|--3--|-----|
               |-----|-----|-----|-----|    |-----|-----|-----|--4--|
               |-----|-----|-----|-----|    
                 >>> >>> >>> >>>   Volume Swells.  Turn volume knob off
                                   hammer on note and turn volume on,
                                   repeat with every note. Use distortion.




Comments