Nirvana - About A Girl Chords & Tabs

 

About A Girl Chords & Tabs

Nirvana Chords & Tabs

Version: 5 Type: Tab 0 ratings
1 star 2 stars 3 stars 4 stars 5 stars
comments

About A Girl Tab

   
Nirvana
About a Girl

Guitar Intro/Verse

 Em      G      Em      G

------3-3-3-3-------3-3-3-3--
-----------------------------
-----------------------------
-2-2-----------2-2-----------
-2-2-----------2-2-----------
------3-3-3-3-------3-3-3-3--

Bass Intro/Verse

-----------------------------
-----------------------------
-----------------------------
-0-0--3-3-3-3--0-0--3-3-3-3--

Guitar Chorus

------------------------
------------------------
-6-6--------------------
-6-6--6-6--4-4-4-4-4-4--
-4-4--6-6--4-4-4-4-4-4--
------4-4--2-2-2-2-2-2--
[ Tab from: http://www.guitartabs.cc/tabs/n/nirvana/about_a_girl_tab_ver_5.html ]
------------------------------------------------
------------------------------------------------
-6-6-----------------------------------5-5-5-5--
-6-6--6-6--4-4-4-4-4-4---2-2-2-2--7-7--5-5-5-5--
-4-4--6-6--4-4-4-4-4-4---2-2-2-2--7-7--3-3-3-3--
------4-4--2-2-2-2-2-2---0-0-0-0--5-5-----------

Bass Chorus

----------------------------------------------------------------------
----------------------------------------------------------------------
-4-4--------------------4-4----------------------------------3-3-3-3--
------4-4--2-2-2-2-2-2-------4-4--2-2-2-2-2-2--0-0-0-0--5-5-----------

Guitar Solo

----------------------------------------
----------------------------------------
---------7--9---9--12-12-12-------------
-------5-7--9-9-9--12-12-12-------------
---5-7----------------------------------
-0--------------------------------------

Any corrections?
E-mail me at xero762002@yahoo.co.uk
www.geodogs.co.uk
Comments