Nirvana - About A Girl Chords & Tabs

 

About A Girl Chords & Tabs

Nirvana Chords & Tabs

Version: 2 Type: Tab 0 ratings
1 star 2 stars 3 stars 4 stars 5 stars
comments

About A Girl Tab

up stroke^
Intro
[ Tab from: http://www.guitartabs.cc/tabs/n/nirvana/about_a_girl_tab_ver_2.html ]
-----3-3-3-3-------------------------------
-----0-0-0-0--------------------------------
-----0-0-0-0--------------------------------
-2-2-0-0-0-0------repeat--------------------
-2-2-2-2-2-2----------------------------------
-0-0-3-3-3-3----------------------------------
     ^   ^
2nd verse
--------------------------------
--------------------------------
-6--6-6-6-6---------------------
-6--6-6-6-6-6-6---4-4-4x--------repeat
-4--4-4-4-4-6-6---4-4-4x--------
----4-4-4-4-4-4---2-2-2x-------
      ^   ^   ^     ^

-----3-3-3x-2-2-2---------------
-----0-0-0x-3-3-3-5-5-5-5-------
-----0-0-0x-2-2-2-5-5-5-5-------
-2-2-0-0-0--------3-3-3-3-------
-2-2-2-2-2----------------------
-0-0-3-3-3----------------------
   ^   ^    ^   ^   

Solo
 
--------------------------------------
--------------------------------------
---------7-7-9-9-9/12-12-12-12---------
-----5-7-7-7-9-9-9/12-12-12-12---------
--5-7----------------------------------
-0--------------------------------------
Comments