Nirvana - About A Girl Chords & Tabs

 

About A Girl Chords & Tabs

Nirvana Chords & Tabs

Version: 5 Type: Bass Tab 0 ratings
1 star 2 stars 3 stars 4 stars 5 stars
comments

About A Girl Bass Tab

   
----------------------------------------------------------------------------
			     ABOUT A GIRL- NIRVANA
----------------------------------------------------------------------------

Tabbed By : ryan plazizzant
e-mail: waynes_world657@hotmail.com

Tuning: standard

G|------------------| intro x4
D|------------------|
A|------------------|
E|-0-00-3333--------|

G|---------------------------| verse x4
D|----------------5-4--------|
A|------------5-7--6-5-------|
E|-0-00-3-33-----------------|
[ Tab from: http://www.guitartabs.cc/tabs/n/nirvana/about_a_girl_btab_ver_5.html ]
G|----------------------------------------| chorus x1
D|-----------------------------4444-444---|
A|--4-44-------------4-44-----------------|
E|-------4-44-2-2222-----4-44-------------|

G|----------------------------------------| bridge x1
D|----------------------------------------|
A|------7-7--000-3-333--------------------|
E|--0-00----------------------------------|

G|------------------| fill
D|------------------|
A|------------------|
E|-3333333333333333-|


Intro x4 
Verse x4
Chorus x1
Bridge x1
Intro x4
Verse x4
Chorus x1
Bridge x1
Intro x4
Verse x4
Chorus x1
Bridge x2
Fill
Intro x8

End on E---0---|
============================================================================
Comments