Nirvana - About A Girl Acoustic Chords & Tabs

 

About A Girl Acoustic Chords & Tabs

Nirvana Chords & Tabs

Version: 1 Type: Bass Tab 0 ratings
1 star 2 stars 3 stars 4 stars 5 stars
comments

About A Girl Acoustic Bass Tab

(Guitar will play Intro 4 times then bass comes in)


Intro

G|----------------------------|
D|----------------------------|
A|----------------------------|
E|--0-00-3-333----------------|


Verse

G|----------------------------------------|
D|---------------------5---4--------------|
A|-------------0h5-7-7---6---5------------|
E|--0-00-3-33-----------------------------|


Chorus

G|---------------------------------------------------------|
D|---------------------------------------------------------|
A|--4-4-4-------------------------------4-4-4--b4-4-44-----|
E|--------4-4-4--2-2-2--2--2-2-2--4-4-4--------------------|



Chorus End 1                    Chorus End 2 
[ Tab from: http://www.guitartabs.cc/tabs/n/nirvana/about_a_girl_acoustic_btab.html ]
G|------------------------------|------------------------------------|
D|------------------------------|------------------------------------|
A|------7-7------3-333----------|------7-7------3333333333333333-----|
E|--5-5-----5-55----------------|--5-5-----5-55----------------------|


Guitar solo

G|----------------------------------------|
D|---------------------5---4--------------|
A|-------------0h5-7-7---6---5------------|
E|--0-00-3-33-----------------------------|



Song Structure:

Intro (x4) 
Verse (x4)
Chorus (x1)
Chorus End 1 (x1)
Intro (x4)
Verse (x4)
Chorus (x1)
Chorus End 1 (x1)
Intro (x4)
Guitar Solo (x4)
Chorus (x1)
Chorus End 1 (x1)
Chorus End 2 (x1)
Intro (x7)

G|-------------------|
D|-------------------|
A|-----------------0~|
E|--0-00--3-33-----0~|
Comments