Nino Rota - A Time For Us Chords & Tabs

 

Nino Rota Chords & Tabs

Version: 1 Type: Tab 0 ratings
1 star 2 stars 3 stars 4 stars 5 stars
comments

A Time For Us Tab

|This is the tabs for A Time For us by Nino Rota.|
|I Hate Guitar Pro so I am doing you a  favor and| 
|myself so ENJOY!!                               |

Easy Version

 |--0--3--2----|-----------0--|------0-----------|-------------|
 |-----------0-|--0--3--0--0--|---1-----3--1---3-|----3--1--0--|
 |-------------|--------------|------------------|-0----------2|
 |-------------|--------------|------------------|------------2|
 |-------------|--------------|------------------|------------0|
 |-------------|--------------|------------------|-------------|

 |--0--3--2----|-----------0--|-----------0---5--|-----5--0--2-|
 |-----------0-|--0--3--0--0--|--------1------5--|--5--------3-|
 |-------------|--------------|-----0---------5--|-------------|
 |-------------|--------------|------------------|-------------|
 |-------------|--------------|------------------|-------------|
 |-------------|--------------|------------------|-------------|

 |--3--2--0----||--3--2--0----|-------------2--|
 |-----------3-||-----------3-|-----------3----|
 |-------------||-------------|---------2------|
 |-------------||-------------|-------0--------|
 |-------------||-------------|-----0----------|
 |-------------||-------------|---0------------|

 _____________________
    CLASSICAL WAY
 _____________________
 
[ Tab from: http://www.guitartabs.cc/tabs/n/nino_rota/a_time_for_us_tab.html ]
|----0---3---2--|---------------------|--0--------0--------|----------------
|---------------|--0--------0---3---0-|--3-----1-----3---1-|--3--------3-1-0
|---------------|--0-----0------------|-----0--------------|--0-----0-------
|---------------|-----0---------------|--------------------|-----0----------
|---------------|--2------------------|--3-----------------|--2-------------
|---------------|---------------------|--------------------|----------------

|-----------------------|-----------0---3---2-|-------------------|
|------------0----------|--0-----0------------|--0--------0--3--0-|
|--2------------2-0--2--|--2--2---------------|--0-----0----------|
|--2-----2--------------|--2------------------|-----0-------------|
|--0--0-----------------|---------------------|--2----------------|
|-----------------------|---------------------|-------------------|

|--0-----------0-|--5---------5--0-|--2-------------|--3-----2--0----|
|--3--------1----|--5------5-------|--3-----------0-|--0-----------3-|
|--------0-------|--5---5----------|----------------|----------------|
|-----2----------|-----------------|----------------|--2-------------|
|--3-------------|--0--------------|--2---2---2-----|----------------|
|----------------|-----------------|----------------|-----0----------|

|--3---2---0-----|--0-------------|-------------------|-----------------|
|--0-------------|--0-------------|--0-----------0----|---------------0-|
|--------------3-|--0-----------0-|--0--------0-----0-|--2---------2----|
|--2-------------|----------------|--------0----------|---------0-------|
|----------------|--0-------------|-----2-------------|------0----------|
|----------------|----------------|--3----------------|--2--------------|

|-------------------|----------------|---------------1-|
|--1-----------1----|--0-------------|------------1----|
|--2--------2-----2-|--0-----------0-|--2------2-------|
|--------2----------|--2--------2----|--3---3----------|
|--0--0-------------|--------2-------|-----------------|
|-------------------|-----0----------|-----------------|


THATS ALL I HAVE FOR NOW!

tabb'd by: Chase Cantrell
Comments