Ninety Pound Wuss - Heresy Chords & Tabs

 

Heresy Chords & Tabs

Ninety Pound Wuss Chords & Tabs

Version: 1 Type: Bass Tab 0 ratings
1 star 2 stars 3 stars 4 stars 5 stars
comments

Heresy Bass Tab

   
Song: Heresy
Band: Ninety pound wuss
Album: Where Meager Die of Self Interest (if you don't have it get it)
tabbed by:ryan
                                (on the intro he does this cool strum
thing)
Intro
G:--------------------
D:--------------------
A:--------------------
E:-7-7-7--8-8-3-5
Verse
G:---------------------
D:---------------------
A:----4-3-2-1-1-22
E:-2------------------
Chorus
G:-------------
D:-------------
A:----4-2-3--
E:-3---------4
Mid-part
G:--------
D:--------
A:-5-1-3
E:--------

That about it!






[ Tab from: http://www.guitartabs.cc/tabs/n/ninety_pound_wuss/heresy_btab.html ]
Comments