Ninety Pound Wuss - Freedom Chords & Tabs

 

Freedom Chords & Tabs

Ninety Pound Wuss Chords & Tabs

Version: 2 Type: Bass Tab 0 ratings
1 star 2 stars 3 stars 4 stars 5 stars
comments

Freedom Bass Tab

Song: Freedom
Artist:  Ninety Pound Wuss
Album:  Ninety Pound Wuss
Copyright:  1995  Tooth & Nail Records
Tabbed by:  John Gula 



----------------------
----------------------
----0000--33---------
--------------33------


This is pretty much used the entirety of the song until you get to this 
part of the song:


[ Tab from: http://www.guitartabs.cc/tabs/n/ninety_pound_wuss/freedom_btab_ver_2.html ]
That's what we all need            \
----------------------              |
----------------------              |
----0000--33--55-----               |
----------------------              |                                                    
|---this part is repeated twice)
That's what all of us need          |                                                    |
----------------------              |
----------------------              |
----0000--33---------               |
--------------33------             /


Freedom in Christ rawks!!! PLAY IT LOUD!!



                           John *Warp Spider*
Comments