Nine Tenths - Way It Goes Chords & Tabs

 

Way It Goes Chords & Tabs

Nine Tenths Chords & Tabs

Version: 1 Type: Tab 0 ratings
1 star 2 stars 3 stars 4 stars 5 stars
comments

Way It Goes Tab

   
www.purevolume.com/ninetenths

----------------------------------------------------------------------------
			     "the way it goes" - Nine Tenths
----------------------------------------------------------------------------
Tabbed by:Mkizzat
Email:I12fan@yahoo.com

Tuning:regular
Intro:
e|-------------------------------------------------------------------------|
B|-------------------------------------------------------------------------|
G|-6~-----9~--------------------6666666699999999---------------------------|
D|---------------------6~----X2-----------------777-777-666-666--X2--------|
A|4------7------7~----6---------4444444477777777777-777-666-666------------|
E|-------------5-----4--------------------------555-555-444-444------------|
                                                xx  xx  xx  xx
Verse: part 1
e|-------------------------------------------|
B|-------------------------------------------|
G|66666666-----------------------------------|
D|66666666222222227777777766666666-X2--------|then play second half of intro
A|44444444222222227777777766666666-----------|
E|--------000000005555555544444444-----------|

Verse: part 2 
e|-------------------------------------------------------------------|
B|-------------------------------------------------------------------|
G|66666666------------------------66666666---------------------------|
D|6666666622222222777777776666666666666666222222227777777766666666---|
A|4444444422222222777777776666666644444444222222227777777766666666---|
E|--------000000005555555544444444--------000000005555555544444444---|

e|-------------------------------------------------------------------------|
B|-------------------------------------------------------------------------|
G|--------------------------------6666666699999999141414141414141413131313-|
D|6666666699999999---------------------------------------------------------|
A|444444447777777777777777666666664444444477777777121212121212121211111111-|
E|----------------5555555544444444-----------------------------------------|
[ Tab from: http://www.guitartabs.cc/tabs/n/nine_tenths/way_it_goes_tab.html ]
Ska break #1
e|------------------------------------------------------------------------|
B|55x5x5x5x5-544-55x5x5x77x88-55x5x5x5x5-544-55x5x5x88x77-----------------|
G|66x6x6x6x6-655-66x6x6x88x99-66x6x6x6x6-655-66x6x6x99x88-----------------|
D|66x6x6x6x6-655-66x6x6x88x99-66x6x6x6x6-655-66x6x6x99x88-----------------|
A|44x4x4x4x4-433-44x4x4x66x77-44x4x4x4x4-433-44x4x4x77x66-----------------|
E|------------------------------------------------------------------------|

Chorus:
e|----------------------------------------------------------------------|
B|----------------------------------------------------------------------|
G|66666666------------------------6666666-------------------------------|
D|66666666777777776666666677777777666666677777777666666667---6-7--------|
A|44444444777777776666666677777777444444477777777666666667---6-7--------|
E|--------555555554444444455555555-------55555555444444445---4-5--------|

e|------------------------------------------------------------------------|
B|------------------------------------------------------------------------|
G|66666666----------------------------------------------------------------|
D|6666666677777777666666664444444466666666777777776666666644444442~-------|
A|4444444477777777666666664444444466666666777777776666666644444442~-------|
E|--------55555555444444442222222244444444555555554444444422222220~-------|

Ska break #2/Verse Part 3
e|-----------------------------------------------------|
B|-----------------------------------------------------|
G|66-----99--------------------------------------------|this part is 
D|66-----99------77------66--6~----X2------------------|  distorted
A|44-----77------77------66--6~------------------------|
E|---------------55------44--4~------------------------|

e|-----------------------------------------------------------------------|
B|55x5x5x5x88x8x8x8----------------------x5-xx5-x8-xx8-------------------|
G|66x6x6x6x99x9x9x9x66x6x6x6x55-655------x6-xx6-x9-xx9-x6-xx6-x5--xx5----|
D|66x6x6x6x99x9x9x9x77x7x7x7x66-766--X2--x6-xx6-x9-xx9-x7-xx7-x6--xx6--X2|
A|44x4x4x4x77x7x7x7x77x7x7x7x66-766------x4-xx4-x7-xx7-x7-xx7-x6--xx6----|
E|-----------------x55x5x5x5x44-544--------------------x5-xx5-x4--xx4----|

Pre-chorus:
e|----------------------------------------------------------------|
B|---------4-66-5-7-----------------------------------------------|
G|66666666--------------------------------------------------------|
D|66666666---------7777777766666666-------------------------------|
A|44444444---------7777777766666666-------------------------------|
E|-----------------5555555544444444-------------------------------|

| ~  vibrato/ring out
| x  Mute note
=========================================================================
Comments