Nine Tenths - Walking Paradox Chords & Tabs

 

Walking Paradox Chords & Tabs

Nine Tenths Chords & Tabs

Version: 1 Type: Tab 0 ratings
1 star 2 stars 3 stars 4 stars 5 stars
comments

Walking Paradox Tab

listen to this song at punx-alive.tk or check out other 9/10 songs at
www.myspace.com/ninetenths or www.purevolume.com/ninetenths



----------------------------------------------------------------------------
			     Walking Paradox - NINE TENTHS
----------------------------------------------------------------------------
Tabbed by:M-kizzat
Email:i12fan@yahoo.com

Tuning:standard
Intro:
e|---------------------------------------------------------------|
B|---------------------------------------------------------------|
G|11~--7~--9~--5---11~---7~---9~--5---11--7--9--5~--11--7--9--5~-|
D|11~--7~--9~--5---11~---7~---9~--5---11--7--9--5~--11--7--9--5~-|
A|-9~--5~--7~--3----9~---5~---7~--3----9--5--7--3~---9--5--7--3~-|
E|---------------------------------------------------------------|

mute downstroke clean upstroke 
e|---------------------------------------|
B|x10x10x6x6x8x8x4x4---------------------|
G|x11x11x7x7x9x9x5x5---------------------|
D|x11x11x7x7x9x9x5x5------3X-------------|increase tempo each stroke/measure
A|x9-x9-x5x5x7x7x3x3---------------------|
E|---------------------------------------|
  
   disorted fast
e|----------------------------------------------------------|
B|----------------------------------------------------------|
G|1111111111111111777777779999999955555555------------------|
D|1111111111111111777777779999999955555555------------------|
A|9-9-9-9-9-9-9-9-555555557777777733333333------------------|
E|----------------------------------------------------------|
[ Tab from: http://www.guitartabs.cc/tabs/n/nine_tenths/walking_paradox_tab.html ]
Verse: 
you can strum twice as fast/more times on each chord during 1st and 3rd measures
e|----------------------------------------------------------------|
B|----------------------------------------------------------------|
G|----------------3333333355555555--------------------------------|
D|22222222555555553333333355555555-------3X-----------------------|
A|22222222555555551111111133333333--------------------------------|
E|0000000033333333------------------------------------------------|

Chorus:
e|----------------------------------------------------------------|
B|----------------------------------------------------------------|
G|11111111777799995555--------------------------------------------|
D|--------------------------------4X------------------------------|
A|9-9-9-9-555577773333--------------------------------------------|
E|----------------------------------------------------------------|

Ska break:  
mute down clean up then down up deaden strum then regular strum
e|------------------------------------------------------------------|
B|x10x10x6x6x8x8x4x4--xx10xx10xx6xx6xx8xx8xx4xx4--------------------|
G|x11x11x7x7x9x9x5x5--xx11xx11xx7xx7xx9xx9xx5xx5--------------------|
D|x11x11x7x7x9x9x5x5--xx11xx11xx7xx7xx9xx9xx5xx5--------------------|
A|x9-x9-x5x5x7x7x3x3--xx9-xx9-xx5xx5xx7xx7xx3xx3--------------------|
E|------------------------------------------------------------------|



| ~  vibrato
| x  Mute note
============================================================================
Comments