Nine Inch Nails - You Know What You Are Chords & Tabs

 

You Know What You Are Chords & Tabs

Nine Inch Nails Chords & Tabs

Version: 1 Type: Bass Tab

You Know What You Are Bass Tab

   
YOU KNOW WHAT YOU ARE
Nine Inch Nails

Taken from the Nothing/Interscope album [With_Teeth} (Halo_19) (2005)

Transcribed by Damian Pamminger (TwitcheD_85@hotmail.com)

Standard tuning: E A D G

Fig. 1
|----------------------------|
|----------------------------|
|----------------------------|
|-1b^-r (1)--1----1--1-------|
*NOTE: b^ = bend 1/2 step
            r (#) = release back to this note
[ Tab from: http://www.guitartabs.cc/tabs/n/nine_inch_nails/you_know_what_you_are_btab.html ]
Fig. 2 (Quiet Bridge)
|-----------------------------------------------------------------------------------|
|-----------------------------------------------------------------------------------|
|---------------------------------------------------------------------4-4-4-4-4-4---|
|-1-1-1-1-1-1-1-1-1-1-1-1-1-1-1-1/-6-6-6-6-6-6-6-6-6-6-6-6-6-6-6-6------------------|

|---------------------------------------------------------|
|---------------------------------------------------------|
|-4-4-4-4-4-4-4-4-4-4-6-6-6-6-6-6-6-6-6-6-6-6-6-6-6-6-----|
|---------------------------------------------------------|