Nine Inch Nails - Wretched Chords & Tabs

 

Wretched Chords & Tabs

Nine Inch Nails Chords & Tabs

Version: 1 Type: Tab 0 ratings
1 star 2 stars 3 stars 4 stars 5 stars
comments

Wretched Tab

Nine Inch Nails
Fragile/All That Could Have Been
The Wretched
Transcribed by --====--

      h - hammer on 
      p - pull off 
      b - bend string up
      r - release bend
      / - slide up
      \ - slide down
      v - vibrato (sometimes written as ~)
      t - tap (with strumming hand)
      x - muted, struck string

[piano riff translated for guitar]

e|---------------------------------------------------------------------------|
B|---------------------------------------------------------------------------|
G|---------------------------------------------------------------------------|
D|-------------------------------------------------------3-------------------|
A|---------5-------------5--------------5-------------------5----------------|
E|--1-3-4------4---1-3-4-----4--1-3-4-----4---1-3-4--------------------------|

[first riff played by electric]

e|---------------------------------------------------------------------------|
B|---------------------------------------------------------------------------|
G|---------------------------------------------------------------------------|
D|----------------v3--0---------------v3--0----------------------------------|
A|---3--3--2--1-----------3--3--2--1-----------------------------------------|
E|---------------------------------------------------------------------------|

[prechorus]

let each of these ring for about a quarter to half count
[ Tab from: http://www.guitartabs.cc/tabs/n/nine_inch_nails/wretched_tab.html ]
e|---------------------------------------------------------------------------|
B|--b13-/--b12-\--b3-/--b15--------------------------------------------------|
G|---------------------------------------------------------------------------|
D|---------------------------------------------------------------------------|
A|---------------------------------------------------------------------------|
E|---------------------------------------------------------------------------|

[chorus riff]
(heavy distortion)
e|---------------------------------------------------------------------------|
B|---------------------------------------------------------------------------|
G|---------------------------------------------------------------------------|
D|---------------------------------------------------------------------------|
A|---------------------------------------------------------------------------|
E|---6-6-7-7-8-8-10-10---3-1-3--3--------------------------------------------|

[solo]
part 1
e|---------------------------------------------------------------------------|
B|---------------------------------------------------------------------------|
G|-b6-------b6---------------------------------------------------------------|
D|------b3-------b3--3-3-/-v5-----------------3------------------------------|
A|---------------------------------1-3-4-3-1-----1-3-4-3-1-------------------|
E|-----------------------------------------------------------------3---------|
part 2
e|---------------------------------------------------------------------------|
B|------------------------------------------------------0--------------------|
G|-b6-----b6-----------------------------------------------------------------|
D|-----b3-----b3---3--5-5-3-3------------------------------------------------|
A|-----------------------------------5-5-3-3-3-1-----------------------------|
E|---------------------------------------------------------------------------|

--====--

ss4_aaron@yahoo.com

Comments