Nine Inch Nails - Wish Chords & Tabs

 

Wish Chords & Tabs

Nine Inch Nails Chords & Tabs

Version: 3 Type: Tab

Wish Tab

   
Nine Inch Nails - Wish
Album: Broken
Year: 1992
Tabbed by: Matt Smith (lovehatetrgdy05@yahoo.com)

Tuning: Standard (e b G D A e)

Verse

e|----------------------------------------|
b|----------------------------------------|
G|--7--7--7-/-8-/-7-/-5--7--7--7-/-8-/-7--|
D|--7--7--7-/-8-/-7-/-5--7--7--7-/-8-/-7--|
A|--5--5--5-/-6-/-5-/-3--5--5--5-/-6-/-5--|
E|----------------------------------------|

Chorus
[ Tab from: http://www.guitartabs.cc/tabs/n/nine_inch_nails/wish_tab_ver_3.html ]
e|-----------------------------------------------|
b|--10--5--7--7--7-/-8-/-7-/-5--7--7--7-/-8-/-7--|
G|--10--5--7--7--7-/-8-/-7-/-5--7--7--7-/-8-/-7--|
D|---8--3--5--5--5-/-6-/-5-/-3--5--5--5-/-6-/-5--|
A|-----------------------------------------------|
E|-----------------------------------------------|


e|-----------------------------------------------------|
b|--10--5--------7--7--7-/-8-/-7-/-5--7--7--7-/-8-/-7--|
G|--10--5--------7--7--7-/-8-/-7-/-5--7--7--7-/-8-/-7--|
D|---8--3--5--6--5--5--5-/-6-/-5-/-3--5--5--5-/-6-/-5--|
A|---------3--4----------------------------------------|
E|---------3--4----------------------------------------|


Bridge

e|--------------|
b|--------------|
G|--7--5--------|
D|--7--5--6--3--|
A|--5--3--6--3--|
E|--------4--1--|

Ending

e|-------------------------|
b|-------------------------|
G|--7--7--7--7-/-5---------|
D|--7--7--7--7-/-5--6-/-3--|
A|--5--5--5--5-/-3--6-/-3--|
E|------------------4-/-1--|

And that's it. An easy one and a great one. Hope this helped.