Nine Inch Nails - Wish Chords & Tabs

 

Wish Chords & Tabs

Nine Inch Nails Chords & Tabs

Version: 1 Type: Bass Tab 0 ratings
1 star 2 stars 3 stars 4 stars 5 stars
comments

Wish Bass Tab

Wish off of Broken by nineinchnails
(someone requested some, so here's one)
This has been in a guitar magazine, but only
thing I needed it for was the synth lines over the vocals.


Play this bit during the vocals:
("riff A")
-----------------------|-------------
-----------------------|----12-12-12-
-14/16\14-12---12---14-|-14----------
-----------------------|-------------
-----------------------|-------------
-----------------------|-------------

But I am the one usually screaming (err, singing), and
that lead line is a bit touch while screaming, so I usually
get my bassist to play it like so:
(Which actually I think sounds better)
-----------------------|--------------
-----------------------|----9--9--9---
-12/14\12-10---10--12--|-12-----------
-----------------------|--------------
[ Tab from: http://www.guitartabs.cc/tabs/n/nine_inch_nails/wish_btab.html ]
So ya play that while you sing the verses.. so you sing
a line, then hit the chords, which are as follows:
(for this, strum up and down, slam all the chords, go
bonkers.. this is nin, the more noise the better)

("riff b")
-----------------------------------
-----------------------------------
-7-7-7-7-7-8-7--7-7-7-7-7-8-7------
-7-7-7-7-7-8-7--7-7-7-7-7-8-7------
-5-5-5-5-5-6-5--5-5-5-5-5-6-5------
-----------------------------------

(Ugh, time is slim, I'll just show the fret on the low-e (now a d),
and you understand, just press down all the strings there)

-5-3-5-6-5-3-0---5-3-5-6-5-3-0------

Have fun. It's a great song to let loose on.
-- 
| David Eli Switzer
| switzerd@freenet.acns.fsu.edu
| Moderator of freenet.kids.*
| Future bumpersticker: I'd rather be REALLY USING THE INTERNET!



Comments