Nine Inch Nails - The Mark Has Been Made Chords & Tabs

 

The Mark Has Been Made Chords & Tabs

Nine Inch Nails Chords & Tabs

Version: 2 Type: Tab 0 ratings
1 star 2 stars 3 stars 4 stars 5 stars
comments

The Mark Has Been Made Tab

   
----------------------------------------------------------------------------
The Mark Has Been Made - Nine Inch Nails
----------------------------------------------------------------------------

Tuning:Drop D

e|--------------------------------------------------------------------------|
B|--------------------------------------------------------------------------|
G|---7b----7b-5-4-----------------------------------------------------------|
D|---xb----xb-x-x-----(x8)--------------------------------------------------|
A|---5b----5b-3-2-----------------------------------------------------------|
D|-0-0---0-0--0-0-----------------------------------------------------------|

e|---------------------------------------------------------------------------|
B|---------------------------------------------------------------------------|
G|---------------------------------------------------------------------------|
D|----------------------(x3)-------------------------------------------------|
A|-5-4-0-3--2----------------------------------------------------------------|
D|--------------0-5-3--------------------------------------------------------|
[ Tab from: http://www.guitartabs.cc/tabs/n/nine_inch_nails/the_mark_has_been_made_tab_ver_2.html ]
e|--------------------------------------------------------------------------|
B|--------------------------------------------------------------------------|
G|--------------------------------------------------------------------------|
D|---3b-3b----3b-3b----3b-3b---++-++-++-++----------------------------------|
A|-5--------5--------5---------++-++-++-++----------------------------------|
D|-----------------------------++-++-++-++----------------------------------|
Guitar 1
e|---------------------------------------------------------------------------|
B|---------------------------------------------------------------------------|
G|---------------------------------------------------------------------------|
D|-00--00--00--00------------------------------------------------------------|
A|-00--00--00--00------------------------------------------------------------|
D|-00--00--00--00------------------------------------------------------------|
Guitar 2
e|--------------------------------------------------------------------------|
B|--------------------------------------------------------------------------|
G|--------------------------------------------------------------------------|
D|---3b-3b----3b-3b---------------------------------------------------------|
A|-5--------5---------------------------------------------------------------|
D|--------------------------------------------------------------------------|

| /  slide up
| \  slide down
| h  hammer-on
| p  pull-off
| ~  vibratogj
| +  harmonic
| x  Mute note
===========================================================================
Comments