Nine Inch Nails - The Frail Chords & Tabs

 

The Frail Chords & Tabs

Nine Inch Nails Chords & Tabs

Version: 2 Type: Tab 0 ratings
1 star 2 stars 3 stars 4 stars 5 stars
comments

The Frail Tab

   
The Frail, from `The Fragile` by NINE INCH NAILS,tabbed by Justin Schwarz 
[ Tab from: http://www.guitartabs.cc/tabs/n/nine_inch_nails/the_frail_tab_ver_2.html ]
Turning dropped-D
    (0:00-0:09)      (0:09-0:17)     (0:17-0:25)      (0:25-0:33)
e|--------------|-----10--------|----------------|-----------------|
B|--8-----------|--8-----6------|--5---6---------|--8--------------|
G|-----5--------|-----------5-4-|-------------4--|------5----------|
D|---------8--5-|-------------5-|---------10-----|----------8---5--|
A|--5--6---8----|--5--6--8------|--5---6--8------|--5---6---8------|
D|------------5-|---------------|-------------5--|--------------5--|
    (0:33-0:41)             (0:42-0:50)              (0:50-0:58)
e|---------------------|-----------------|------10-------------|
B|--5---6-----------3--|--6-------8---3--|--8------------------|
G|---------------------|------5----------|-----------6---5-4---|
D|-----------8--10-----|-----------------|-----------------5---|
A|--5---6----8---------|--5---6---8------|--5---6----8---------|
D|------------------5--|--------------5--|---------------------|
   (0:58-1:04)       (1:04-1:07)    (1:08-1:54) (x3) 
e|------------------|-----------|-----------------|
B|--5---6-----------|-----------|-----------------|
G|------------------|-----------|-----------------|
D|----------8---5---|-----------|-----------------|
A|--5---6---8-------|-----------|-----------------|
D|--------------5---|-----------|--0---1---3---5--|
                                    
                                    
THIS SHOULD BE 99.99% CORRECT, IF NOT EMAIL ME AT SHR0OMHEAD420@aol.com
Comments