Nine Inch Nails - The Fragile Chords & Tabs

 

The Fragile Chords & Tabs

Nine Inch Nails Chords & Tabs

Version: 2 Type: Bass Tab 0 ratings
1 star 2 stars 3 stars 4 stars 5 stars
comments

The Fragile Bass Tab

Nine Inch Nails - The Fragile
Tabbed by Marcus Sweeney - Australia

This was originally tabbed by Twiggy (Tw1GgY699@hotmail.com) but was quite a 
bit off the mark.
The chorus and instrumental part seem fine, but the intro and verse needed 
some work.

Standard Tuning

Intro & Verse Riff
(She shines in a world full of ugliness)
G---------------------------------------------------|
D---------------------------------------------------|
A-----8-8--8-8--8--------------3-3--3-3-------------|
E--3~------------8-8-7-3---3~-----------1/3---------|
[ Tab from: http://www.guitartabs.cc/tabs/n/nine_inch_nails/the_fragile_btab_ver_2.html ]
Pre-chorus and chorus
(I won't let you fall apart)
G-----------------------------
D-----------------------------
A-5--5----6--6---8--8----8----
E--------------------------3~-

No bass in bridge
(We'll find the perfect place to go where we can run and hide)

Bass comes back along with guitar in instrumental part
(Very similar to chorus)
G----------------------------------
D----------------------------------
A-5-5-5-5---6-6-6-6---8-8---8------
E-------------------------------3~-
Continues until end

Please feel free to contact me marcus_ams@hotmail.com
Comments