Nine Inch Nails - The Day The World Went Away Chords & Tabs

 

The Day The World Went Away Chords & Tabs

Nine Inch Nails Chords & Tabs

Version: 3 Type: Bass Tab 0 ratings
1 star 2 stars 3 stars 4 stars 5 stars
comments

The Day The World Went Away Bass Tab

Song -  "The Day The World Went Away" Bass
Artist - Nine Inch Nails
Tabbed by - Tim ~(miserymachine40@hotmail.com)

Im almost 100% sure this is right just listen to the song.

Standard Tuning

G:-------------------------------------------------------------------------
D:-------------------------------------------------------------------------
A:-------------------------------------------------------------------------
E:-9--9--9--9--9--9--9--9--7--7--7--7--7--7--7--7--0--0--0--0--0--0--0--0--

G:-----------------------
D:-----------------------
A:-----------------------
E:-2--2--2--2--2--2--2--0

Just repeat it a through all the song that the bass is playing.

===========


The Day the World Went Away - Nine Inch Nails
Jon Craven (nojnevarc@hotmail.com; www.geocities.com/larsramirez2001)
(enters @ 0:23)
[ Tab from: http://www.guitartabs.cc/tabs/n/nine_inch_nails/the_day_the_world_went_away_btab_ver_3.html ]
Riff 1: (x8)
G:----------------|----------------|------------|------------|------------|------------|------------|
D:----------------|----------------|------------|------------|------------|------------|------------|
A:----------------|----------------|------------|------------|------------|------------|------------|
E:-10--10--10--10-|-10--10--10--10-|-8--8--8--8-|-8--8--8--8-|-3--3--3--3-|-3--3--3--3-|-6--6--6--6-|

G:------------|
D:------------|
A:------------|
E:-6--6--6--8-|

Pause for 18 measures
Riff 1 (x6)
Break till end
===========           Song: "The Day The World Went Away" (Bass Tab)
           Artist: Nine Inch Nails
           Album: "The Fragile" (halo fourteen)
           Tabbed By: Damian

           Standard Tuning,Lowest String To Highest String: E,A,D,G

           G:---------------------------------------------------------
           D:---------------------------------------------------------
           A:---------------------------------------------------------
           E:-10--10--10--10--10--10--10--10---8--8--8--8--8--8--8--8-

           G:---------------------------------------------------------
           D:---------------------------------------------------------
           A:---------------------------------------------------------
           E:-3--3--3--3--3--3--3--3---6--6--6--6--6--6--6---8--------

           Just repeat this throughout the entire track.


           Any questions or comments, mail me at:
           lunchbox_of_daisy@hotmail.com
Comments