Nine Inch Nails - Suck Chords & Tabs

 

Suck Chords & Tabs

Nine Inch Nails Chords & Tabs

Version: 2 Type: Bass Tab 0 ratings
1 star 2 stars 3 stars 4 stars 5 stars
comments

Suck Bass Tab

NIN - Suck
Standard tuning. 

Verse		x17
"There is no god up in the sky..."
G-----------------|-----|
D*---------------*|-----|
A*------5-6------*|-----|
E--3--0-----0-----|--3--|
		     ^Before chorus
Chorus
"How does it feel..."
G-----------------------------------------------------------|
D-----------------------------------------------------------|
A-7-7-7-5-5-5-8-8-8-5-5-5------5----7-7-7-5-5-5-------------|
E-------------------------5--7------------------5---3-3/6-3-|

G-----------------------------------------------------------|
D-----------------------------------------------------------|
A-7-7-7-5-5-5-8-8-8-5-5-5------5----7-7-7-5-5-5-------------|
E-------------------------5--7------------------5---3-3-3---|

Verse x17
Chorus
[ Tab from: http://www.guitartabs.cc/tabs/n/nine_inch_nails/suck_btab_ver_2.html ]
Fill thingy			      x8
Whispering "I am so dirty..."
G--------------------------------------|
D*-------------2-------3--------------*|
A*------------------------------------*|
E--0-0-0-0-0-0---3-3-3---4-4-4-5-6-----|

Chorus x2
Fill	      x2
G---------------|
D*-------------*|
A*---5-6-------*|
E--0------------|

Verse x9
Continue this to fade with "A thousand lips, a thousand tongues..."
G-----------------------|
D-----------------------|
A-----------------------|
E-3----3----3----3----3-| These may have slight bend or mute.

Any comments/suggestions/corrections? Mail me.
---------- 
Benjamin

"Kinda like a cloud I was up, was up, way up in the sky and I was feeling 
some feelings you wouldn't believe, sometimes I don't believe it myself and 
i decided i was never coming down 
Just then a tiny little dot caught my eye it was just about too small to see 
but i watched it way too long, it was pulling me down...."
		         	
E-mail: j6872839@ironbark.bendigo.latrobe.edu.au	
URL: http://ironbark.bendigo.latrobe.edu.au/~j6872839/westy.html
------------------------------------------------------------------

Comments