Nine Inch Nails - Something I Can Never Have Acoustic Chords & Tabs

 

Something I Can Never Have Acoustic Chords & Tabs

Nine Inch Nails Chords & Tabs

Version: 1 Type: Tab 0 ratings
1 star 2 stars 3 stars 4 stars 5 stars
comments

Something I Can Never Have Acoustic Tab

   
Artist -=- Nine Inch Nails
Title -=- Something i can never have (acoustic)
Tabbed by Tom Haste
(Email: electric_lucifer@hotmail.com)

To all the musicians that might read this file, im sorry.
if tab were 5 lines and actual rythmnic dots, it would be better,
but hey, if u know the song, its to play, if not, listen to the song.
Its really worth a good listen to.


Piano Part:
    C                    E           F
|------3-3-3-3-3-3-3-4-3------3-3-3-3-3-3-3-3-4-3--| (G note timing is all off
|---1--------------------1-------------------------|  off beat. Listen to it to
|O------------------------------------------------O|  get it right)
|O----------------------(2)---------(3)-----------O|
|---3----------------------------------------------| (Repeat)
|------------------------0-----------1-------------|

Guitars (Chorus)
[ Tab from: http://www.guitartabs.cc/tabs/n/nine_inch_nails/something_i_can_never_have_acoustic_tab.html ]
  C                      E           F
--------------------------------------------------
--------------------------------------------------
--5----------------------5-----------5------------
-------------------------2-----------3------------
--3-----------------------------------------------
--------------------------------------------------

Guitar Solo:
if anyone wants to get picky about finger positioning, 
give up guitar and become a fulltime jerk. :)

-------------------------1---0----
---1---3--------------------------
-----------3~-------3~------------  X2
-3---------------3----------------
----------------------------------
----------------------------------

-----------------------------1--------0------
----3-------3--------3-----------------------
----3-------3--------3-----------------------
-3--------3--------3-------------------------
---------------------------------------------
---------------------------------------------

Enjoy!
Comments