Nine Inch Nails - Ruiner Chords & Tabs

 

Ruiner Chords & Tabs

Nine Inch Nails Chords & Tabs

Version: 1 Type: Tab 0 ratings
1 star 2 stars 3 stars 4 stars 5 stars
comments

Ruiner Tab

Ruiner
Nine Inch Nails
The Downward Spiral

e|---------------------------------|----------------------------------------|
B|---------------------------------|----------------------------------------|
G|---------------------------------|--------------------------------12-14---|
D|--14^------10h12-12-10-12^-10----|------------12-12-12-12-12-12/14--------|
A|-----10~---------------------12--|--10^11^12------------------------------|
D|---------------------------------|----------------------------------------|

e|-----------------|-------------------------------|--15-15-15-15~--17^-----|
B|--15^~--15^~-----|--15-13-15-15^15^15^15-13-15^--|------------------------|
G|------------12~--|-------------------------------|------------------------|
D|-----------------|-------------------------------|------------------------|
A|-----------------|-------------------------------|------------------------|
D|-----------------|-------------------------------|------------------------|
[ Tab from: http://www.guitartabs.cc/tabs/n/nine_inch_nails/ruiner_tab.html ]
e|-------------------------|------------------------|-----------------------|
B|-------------------------|------------------------|-----------------------|
G|-------------------------|----------------7-7^7^--|----5-5----------------|
D|-------------------------|------------5-7-7^7^----|---7-7-7-5---------7~--|
A|---3-5--5^5^5^3^5^3^0-3--|--3^5^3^0-7-------------|--0-------7-6-5--------|
D|-------------------------|------------------------|---------------8-5-----|

e|---------------------------|---------------------------5-5----------------|
B|---------------------------|---------------------------5-5----------------|
G|--75-5~-75--7-7^7^-5-7---|-------------------------2--------------------|
D|--75-5~-75--7-7^7^-5-----|-------------------------2--------------------|
A|---------------------------|--5-4-43-32-2---2----0----------------------|
D|---------------------------|----------------------------------------------|



IIIIIIIIIIIIIIIIIIIIIIIIIIIIIIIII
I------------------------------II                              
IINNN     NN  III   NN    NNNNN II
IINNNN    NN  III   NN    NN NN II
IINN NN   NN  III   NN   NN  NN II
IINN  NN  NN  III   NN  NN   NN II
IINN   NN NN  III   NNNNN    NN II
IINN    NNNN  III   NNNN     NN II
II------------------------------II
II------------------------------II
Comments