Nine Inch Nails - Right Where It Belongs Chords & Tabs

 

Right Where It Belongs Chords & Tabs

Nine Inch Nails Chords & Tabs

Version: 3 Type: Tab 0 ratings
1 star 2 stars 3 stars 4 stars 5 stars
comments

Right Where It Belongs Tab

I take no credit for any of this tab. It was tabbed by someone named Eligos. I thought
I'd submit it here since no one else is anywhere close.

Nine Inch Nails - Right Where It Belongs
With Teeth


Main Riff Intro/Verse:

E|--------------------6-6-8--|--------------------8-8-10-|
B|-------5-5-7-8-8-10--------|-------5-5-6-8-8-10--------|
G|-5-5-7---------------------|-5-5-7---------------------|
D|---------------------------|---------------------------|
A|---------------------------|---------------------------|
E|---------------------------|---------------------------|

Background Effect Intro/Verse:

E|---------------------------|---------------------------|
B|---------------------------|---------------------------|
G|--7--7--7--7--7--7--7--7---|--5--5--5--5--3--3---------|
D|---------------------------|--------------------3--3---|
A|-5--5--5--5--5--5--5--5----|-3--3--3--3--1--1----------|
E|---------------------------|-------------------1--1----|

Main Riff Chorus: (first 3 notes from this replace last 3 from the chorus)
[ Tab from: http://www.guitartabs.cc/tabs/n/nine_inch_nails/right_where_it_belongs_tab_ver_3.html ]
|-----------------------------------5-------------------|
|-10-10-11-------10-10-11-------6-8---------6-6-5-------|
|----------7-7-9----------7-7-9-------------------------|
|-------------------------------------7-7-8-------7-7-8-|
|-------------------------------------------------------|
|-------------------------------------------------------|

Background Effect Intro/Verse:

|-------------------------------------------------------|
|-------------------------------------------------------|
|---------------------------10--10--10--10--5--5--5--5--|
|---5--5--5--5--8--8--8--8------------------------------|
|--------------------------8---8---8---8---3--3--3--3---|
|--3--3--3--3--6--6--6--6-------------------------------|

Main Riff Outro:

|-----5---------5-------------5--------------5-------5--------5-|
|-6-8-------6-8-----------6-8------------6-8-----6-8------6-8---|
|-------2---------3-2-----------2--0-----------3-------2--------|
|---------3-----------3-0------------3--------------------------|
|--------------------------------------3------------------------|
|---------------------------------------------------------------|

|-----------------------------------------------------|
|-----------------------------------------------------|
|--------------------------10--10--10--10--9--9--9--9-|
|--6--6--6--6--8--8--8--8-----------------------------|
|-------------------------8---8---8---8---7--7--7--7--|
|-4--4--4--4--6--6--6--6------------------------------|

|-----------5----------|
|-------6-8---6--------|
|--3-------------------|
|----------------------|
|----------------------|
|----------------------|
Comments