Nine Inch Nails - Right Where It Belongs Chords & Tabs

 

Right Where It Belongs Chords & Tabs

Nine Inch Nails Chords & Tabs

Version: 2 Type: Tab 0 ratings
1 star 2 stars 3 stars 4 stars 5 stars
comments

Right Where It Belongs Tab

   
Sorry About the Last one it was like 4am. This one is right.

Tabbed By-Chris(A.K.A Big C)
Song/Artist/Album-Right Where It Belongs-Nine Inch Nails-With Teeth

Strings-----
Slide\\\

guitar 1

play over and over (start 0 stop 4:12)
[ Tab from: http://www.guitartabs.cc/tabs/n/nine_inch_nails/right_where_it_belongs_tab_ver_2.html ]
e--------------6-------4-------8------11-------|
b---------5-4----3-2----7-6----10-9------------|
d----------------------------------------------|
g----------------------------------------------|
a----------------------------------------------|
e----------------------------------------------|
then play this over and over
start 4:15 stop at 5:04
e-----------5--7--------------------------------|
b----4--3---------------------------------------|
d-----------------------------------------------|
g-----------------------------------------------|
a-----------------------------------------------|
e-----------------------------------------------|

guitar 2

then play this over and over
start at 1:12 stop at 4:50

e-----------------------------------------------|
b-----------------------------------------------|
d-----------------------------------------------|
g-----------------------------------------------|
a-----------------------------------------------|
e----4-4-4-4-3-3-3-3\\\2------------------------|
Comments