Nine Inch Nails - Piggy Chords & Tabs

 

Piggy Chords & Tabs

Nine Inch Nails Chords & Tabs

Version: 4 Type: Bass Tab 0 ratings
1 star 2 stars 3 stars 4 stars 5 stars
comments

Piggy Bass Tab

Piggy - Nine Inch Nails

By: Jon Craven (i_apathy@hotmail.com)
For questions, comments, feedback, an outline of the timing, write the above
address.

Note:
  -Played with a pick.

(4/4)(66 bpm)
Standard tuning

r - eighth rest
* - note held for an eighth beat
R - quarter rest
p - pull-off
. - sixteenth rest

Verse 1: (x2)(0:02)
|----------------|----------------|----------------|-----------------|
|----------------|----------------|----------------|-----------------|
|------5-*-*-R---|----------------|------5-*-*-R---|--------------8p7|
|7---r-----------|5---r-4-*-*-R---|7---r-----------|5---r-4-*-*-r----|

|----------------|----------------|----------------|-----------------|
|----------------|----------------|----------------|-----------------|
|------5-*-*-R---|----------------|------5-*-*-R---|--------------8p7|
|7---r-----------|5---r-4-*-*-R---|7---r-----------|5---r-4-*-*-r----|

|----------------|----------------|----------------|----------------|
|----------------|----------------|----------------|----------------|
|------5-*-*-R---|----------------|------5-*-*-R---|----------------|
|7---r-----------|5---r-4-*-*-R---|7---r-----------|5---R---R---R---|
[ Tab from: http://www.guitartabs.cc/tabs/n/nine_inch_nails/piggy_btab_ver_4.html ]
Chorus: (x2)(0:45)
|----------------|----------------|----------------|----------------|
|----------------|----------------|----------------|----------------|
|----------------|------------55r-|----------------|----------------|
|5777r-5777r-5777|r-5777r-88r-----|5777r-5777r-5777|5777r-578.r-R---|

Verse 2: (1:14)
|----------------|----------------|----------------|-----------------|
|----------------|----------------|----------------|-----------------|
|------5-*-*-R---|----------------|------5-*-*-R---|--------------8p7|
|7---r-----------|5---r-4-*-*-R---|7---r-----------|5---r-4-*-*-r----|

|----------------|----------------|----------------|-----------------|
|----------------|----------------|----------------|-----------------|
|------5-*-*-R---|----------------|------5-*-*-R---|--------------8p7|
|7---r-----------|5---r-4-*-*-R---|7---r-----------|5---r-4-*-*-r----|

|----------------|----------------|
|----------------|----------------|
|------5-*-*-R---|----------------|
|7---r-----------|5---r-4-*-*-R---|

Chorus (x2)
Rest for one measure

Outro: (x6)(2:23)
|----------------|----------------|----------------|----------------|
|----------------|----------------|----------------|----------------|
|------------7777|r-------55r-44r-|------------7777|r---------------|
|5777r-3333r-----|--5555r---------|5777r-3333r-----|--5555r-R---R---|

Rest till end
Comments