Nine Inch Nails - Piggy Chords & Tabs

 

Piggy Chords & Tabs

Nine Inch Nails Chords & Tabs

Version: 1 Type: Bass Tab 0 ratings
1 star 2 stars 3 stars 4 stars 5 stars
comments

Piggy Bass Tab

Here are some corrections on yout tabbing of piggy.  
"Piggy"
As Recorded by Nine Inch Nails
Words and Music by Trent Reznor

Verse Riff 
Elec. Bass
Rhy.Fig.1
|------------------|------------------|----------------|-----------------|
|---------0--------|------------------|---------0------|------------3-2--|
|--2---------------|--0---------------|--2-------------|--0--------------|
|------------------|---------4--------|----------------|--------4--------|


Verse Riff
Bass *synth bass arr. for bass
|-------------------------------|----------------------|------------------
|-------------------------------|----------------------|------------------
|-------------------------------|-----------------5-5--|------------------
|--5--7-7-7--5--7-7-7--5--7-7-7-|--5--7-7-7--8-8-------|--5--7-7-7--5--5--
|
|
|Gtr.1 *synth arr. for gtr
|--11---------------------------|--17------------------|------------------
|-------------------------------|----------------------|--16--------------
|-------------------------------|----------------------|------------------
|-------------------------------|----------------------|------------------
|-------------------------------|----------------------|------------------
|-------------------------------|----------------------|------------------


[ Tab from: http://www.guitartabs.cc/tabs/n/nine_inch_nails/piggy_btab.html ]
--------------------|-------------------|
--------------------|-------------------|
--------------------|-------------------|
---7-7-7--5--7-7-7--|--5--7-7-7--5-7-8--|
|
|
|
--------------------|-------------------|
--------------------|--16---------------|
--------------------|-------------------|
--------------------|-------------------|
--------------------|-------------------|
--------------------|-------------------|
2nd Verse Riff
w\Rhy.Fig.1
Gtr.2 *organ arr. for gtr
|------------------|--------------|-------------------|------------------|
|------------------|--------------|-------------------|------------------|
|------------------|--------------|-------------------|--------------2---|
|-4---------2------|--2----0------|--4---------2------|--2----0----------|
|-2----------------|--4----4------|--2----------------|--4----2----------|
|------------------|--------------|-------------------|------------------|

2nd Chorus
w\Rhy.Fig.1A & 1B
Gtr.3 *piano arr. for gtr
|--17------------|----17----15--14-------------|---17--------------------|
|----------10----|--------------------17--16---|-------------------------|
|----------------|-----------------------------|------------14-----------|
|----------------|-----------------------------|-------------------------|
|----------------|-----------------------------|-------------------------|
|----------------|-----------------------------|-------------------------|



|----17----15--14-------------|
|--------------------17--16---|
|-----------------------------|
|-----------------------------|
|-----------------------------|
|-----------------------------|


Outro
Bass *bass synth arr. for bass
|-------------------------------|----------------------|
|----------------------2--2-2-2-|-----------0-0--------|
|--0--2-2-2---------------------|--0--0-0-0------------|
|------------3--3-3-3-----------|-----------------9-9--|
|
|
|Gtr.4 (acous)
|-------------------------------|----------------------|
|-------------------------------|----------------------|
|-------------------------------|----------------------|
|-------------------------------|----------------------|
|----------------------7--7-7-7-|------------5-5--4-4--|
|--5--7-7-7--3--3-3-3-----------|--5--5-5-5------------|


Transcribed by
E4metal@aol.com

Comments