Nine Inch Nails - Metal Chords & Tabs

 

Metal Chords & Tabs

Nine Inch Nails Chords & Tabs

Version: 1 Type: Tab 0 ratings
1 star 2 stars 3 stars 4 stars 5 stars
comments

Metal Tab

"Metal" by Nine Inch Nails
From the album "Things Falling Apart"
Tabbed by Patrick Vacek
Standard Tuning

Main Riff (Verse)
e|---------------|
B|---------------|
G|---------------|
D|---------------|
A|---7-----------|
E|-------8---5---|

Bridge
e|-------|
B|-------|
G|-------|
D|-------|
A|-------|
E|---1---|
[ Tab from: http://www.guitartabs.cc/tabs/n/nine_inch_nails/metal_tab.html ]
“Solo” (actually a synth)
e|-----------------------------------|
B|-----------------------------------|
G|--------------------------7-8------|
D|-----------------7-8---------------|
A|---8-------------------------------|
E|-----------------------------------|

Piano riff during solo
e|-------------|
B|-------------|
G|-------------|
D|-------------|
A|---5-6-7-8---|
E|-------------|

Clean guitar
e|-------------------|
B|-------------------|
G|-------5-------7---|
D|---3---5---6---7---|
A|---3---3---6---5---|
E|---1-------4-------|

Song order:
Main Riff 	x6
Bridge
Main Riff	x4
Bridge
Solo (comes in at 3:18)
Piano (comes in for the first time at 4:09)
Clean guitar (comes in at 4:19)
Comments