Nine Inch Nails - Hurt Chords & Tabs

 

Hurt Chords & Tabs

Nine Inch Nails Chords & Tabs

Version: 6 Type: Tab

Hurt Tab

   
-------------------------------------------------------------------------------
			     SONG NAME - Band Name
-------------------------------------------------------------------------------
Tabbed by: NineInchNails_0
Email: axel_hyper@hotmail.com

Tuning: e,B,G,D,A,e

Verse:
e|-------------------------10------------------------------------------------|
B|-----------------5--------------------------5------------------------------|
G|-----10--------7-------7--------10-7------7-------7------------------------|
D|-------------7-------9------------------7-------9--------------------------|
A|---9-------5-------7----------9-------5-------7----------------------------|
E|-7--------------------------7----------------------------------------------|
Play 4 times.

Chorus:
e|---------------------------------------------------------------------------|
B|---------------------------------------------------------------------------|
G|---------------------------------------------------------------------------|
D|-7-7-7-7-7-7-7-7-7-7-7-7-7-7-7-7-7-7-7-7-7-7-7-7-7-7-7-7-7-7-7-7-----------|
A|-x-x-x-x-x-x-x-x-x-x-x-x-5-5-5-5-x-x-x-x-x-x-x-x-x-x-x-x-5-5-5-5-----------|
E|-5-5-5-5-7-7-7-7-3-3-3-3---------5-5-5-5-7-7-7-7-3-3-3-3-------------------|
Play 4 times.

Piano arranged for guitar:
e|-12-12-12-12-12------------------------------------------------------------|
B|----------------15-14-15-15-15-15-15-15-14-12-14-14-14-14-14-14------------|
G|---------------------------------------------------------------------------|
D|---------------------------------------------------------------------------|
A|---------------------------------------------------------------------------|
E|---------------------------------------------------------------------------|
[ Tab from: http://www.guitartabs.cc/tabs/n/nine_inch_nails/hurt_tab_ver_6.html ]
e|----------------------------9-10-------------------------------------------|
B|-12-10-12-12-12-12-12-12-10------------------------------------------------|
G|---------------------------------------------------------------------------|
D|---------------------------------------------------------------------------|
A|---------------------------------------------------------------------------|
E|---------------------------------------------------------------------------|
Play the whole Piano part 2 times.

Verse again:
e|-------------------------10------------------------------------------------|
B|-----------------5--------------------------5------------------------------|
G|-----10--------7-------7--------10-7------7-------7------------------------|
D|-------------7-------9------------------7-------9--------------------------|
A|---9-------5-------7----------9-------5-------7----------------------------|
E|-7--------------------------7----------------------------------------------|
Play 5 times.

Chorus:
e|---------------------------------------------------------------------------|
B|---------------------------------------------------------------------------|
G|---------------------------------------------------------------------------|
D|-7-7-7-7-7-7-7-7-7-7-7-7-7-7-7-7-7-7-7-7-7-7-7-7-7-7-7-7-7-7-7-7-----------|
A|-x-x-x-x-x-x-x-x-x-x-x-x-5-5-5-5-x-x-x-x-x-x-x-x-x-x-x-x-5-5-5-5-----------|
E|-5-5-5-5-7-7-7-7-3-3-3-3---------5-5-5-5-7-7-7-7-3-3-3-3-------------------|
Play 2 times.

Play this with a lot of disortion:
e|---------------------------------------------------------------------------|
B|---------------------------------------------------------------------------|
G|---------------------------------------------------------------------------|
D|-7-7-7-7-7-7-7-7-7-7-7-7-7-7-7-7-7-7-7-7-7-7-7-7-7-7-7-7-7-7-7-7-----------|
A|---------------------------------------------------------------------------|
E|---------------------------------------------------------------------------|
Play 1 full time, the second time through, stop at 28.

Outro:
e|---------------------------------------------------------------------------|
B|---------------------------------------------------------------------------|
G|---------------------------------------------------------------------------|
D|-7-2-----------------------------------------------------------------------|
A|---------2-----------------------------------------------------------------|
E|---------------------------------------------------------------------------|

x = Mute note
===============================================================================