Nine Inch Nails - Hand That Feeds Chords & Tabs

 

Hand That Feeds Chords & Tabs

Nine Inch Nails Chords & Tabs

Version: 2 Type: Bass Tab 0 ratings
1 star 2 stars 3 stars 4 stars 5 stars
comments

Hand That Feeds Bass Tab

   
Nine Inch Nails - The Hand That Feeds

Tabbed By Bam_HIM_Bassist
[ Tab from: http://www.guitartabs.cc/tabs/n/nine_inch_nails/hand_that_feeds_btab_ver_2.html ]
Tuning: Standard (E A D G)
Intro (fading in)
G|-----------------------------------------------------------------|
D|-----------------------------------------------------------------|
A|-----------------------------------------------------------------|
E|--3---5-5---3---5---8--------------------------------------------|
Or
G|-----------------------------------------------------------------|
D|-----------------------------------------------------------------|
A|----------------------3------------------------------------------|
E|--3---5-5---3---5------------------------------------------------|
Both are the same, one is just easyer to go to.

Chorus
I aint too sure about the timing here but it sounds about right
G|-----------------------------------------------------------------|
D|-----------------------------------------------------------------|
A|-----------------------------------------------------------------|
E|--11111111000000002222222233333333---55---3--8-------------------|

Thats it, pretty easy song once you get the timing right.
Comments