Nine Inch Nails - Frail Chords & Tabs

 

Frail Chords & Tabs

Nine Inch Nails Chords & Tabs

Version: 2 Type: Tab 0 ratings
1 star 2 stars 3 stars 4 stars 5 stars
comments

Frail Tab

|-----------------------------------------------------------------------------------------------|
|	Nine Inch Nails.									|
|	The Frail(version)/from the album: things falling apart. 										|
|	Guitar.											|
|       By: Jonas.  										|
|-----------------------------------------------------------------------------------------------|
                         The song is done with two violins and a cello, and I tabbeb it for you 
First Violin.(Guitar)    guitar junkies who will play anything on guitar.
	|---------------------------------------------------------------------------
	|--------------------15-----------------------------------------------------
	|-12-------------12-----------------------------------12--------------------
	|-----1O--8--------------15----------14---15------12------1O--8--12--14--15-
	|------------1O--------------15-14------------15----------------------------
	|---------------------------------------------------------------------------

	 ------------------------------|
	 ------------------------------|
	 ---------------------12-------|.  Repeat.
	 -----1O--12---15--------12----|.
	 -13--------------15-----------|
	 ------------------------------|

Second Violin.(Guitar)
	|------------------------|
	|------------------------|
	|-------------7----------|.
	|-5--7--8--7----7--8--7--|.
	|------------------------|
	|------------------------|
[ Tab from: http://www.guitartabs.cc/tabs/n/nine_inch_nails/frail_tab_ver_2.html ]
Comments