Nine Inch Nails - Fragile Chords & Tabs

 

Fragile Chords & Tabs

Nine Inch Nails Chords & Tabs

Version: 1 Type: Tab 0 ratings
1 star 2 stars 3 stars 4 stars 5 stars
comments

Fragile Tab

   
"The Fragile"
Nine Inch Nails


Notation
b   	bend
r       release
>   	slide
~~	vibrato
h   	hammer on
p	pull off
PM	palm mute
x	muted or scraped note
H  	harmonic
(6)	ghost note
///	tremolo pick

THE FRAGILE

Verse 1 bassline

A-----8-8------------3-3-2--------------8-8-----------------
E--3-------1-1----1---------3--------3-------1-1----1-3-----

G--0--9--10--9--7---

Chorus 1 bassline

A--5--6---8--------
E------------3-----

Chorus Guitar (second chorus)

e--15p13--15p13--15p13----
B-------------------------
G-------------------------
[ Tab from: http://www.guitartabs.cc/tabs/n/nine_inch_nails/fragile_tab.html ]
Verse 2
e-----------------------
B-----------------------
G-----------------------
D------16------16-------
A--14------14------14---
E-----------------------

Bridge 
e-----------------------------
B--10--10---4-5-4--8---8--8---
G--10--10---5------8--10--9---
D---9--10---5------8---8--8---
A---8---8---3------6---6--6---
E-----------------------------

Solo 
G--12--5--3--0--12--19--10--5--4--9--10--5--4--12--5--3--0--

G--9--10--3--5--7h8p7--10--5--12--7--12--19--10--5--4--9--10--3--0-|

(almost every note is held for two beats)

Original tab at www.bandtabs.com
 -staind_d@hotmail.com
Comments