Nine Inch Nails - Dead Souls Chords & Tabs

 

Dead Souls Chords & Tabs

Nine Inch Nails Chords & Tabs

Version: 2 Type: Tab 0 ratings
1 star 2 stars 3 stars 4 stars 5 stars
comments

Dead Souls Tab

   
Nine Inch Nails
The Crow Soundtrack
Dead Souls
Transcribed by --====--
ss4_aaron@yahoo.com

(note:this song is very easy, but the timing is slightly difficult)

tuning:
e
B
G
D
A
D

--====--

e|-------------------------------------------------------------------------------|
B|-------------------------------------------------------------------------------|
G|-------------------------------------------------------------------------------|
D|-------------------------------------------------------------------------------|
A|--------------------------------------1-3--------------------------------------|
D|-5-5-5-5-5-8-5-3-3-3-3--5-5-5-5-5-5-------3-3-3-3-3-3-3------------------------|

repeat
[ Tab from: http://www.guitartabs.cc/tabs/n/nine_inch_nails/dead_souls_tab_ver_2.html ]
e|-------------------------------------------------------------------------------|
B|-------------------------------------------------------------------------------|
G|----3-----3----3----5-5--3--3--------------------------------------------------|
D|-1----1-----1------------------------------------------------------------------|
A|-------------------------------------------------------------------------------|
D|-------------------------------------------------------------------------------|

e|-------------------------------------------------------------------------------|
B|-------------------------------------------------------------------------------|
G|-10-10-10-8-3-5-5--------------------------------------------------------------|
D|-10-10-10-8-3-5-5--------------------------------------------------------------|
A|-8--8--8--6-1-3-3--------------------------------------------------------------|
D|-------------------------------------------------------------------------------|

--====--
ss4_aaron@yahoo.com

Comments