Nine Inch Nails - Dead Souls Chords & Tabs

 

Dead Souls Chords & Tabs

Nine Inch Nails Chords & Tabs

Version: 3 Type: Bass Tab 0 ratings
1 star 2 stars 3 stars 4 stars 5 stars
comments

Dead Souls Bass Tab

   
-------------------------------------------------------------------------------
			     Dead Souls - Nine Inch Nails
-------------------------------------------------------------------------------

Tabbed By : Eeasy
e-mail: da1smegined@hotmail.com

Tuning:Standard

ok i think that this is play up here but the lower version is at the bottom if you think this is wrong

verse

G|------------------------------------|
D|-------------------8----------------|
A|-10-10-10-10-10-10---10-8-8-8-8-8-8-|
E|------------------------------------|

G|------------------------------------|
D|-------------------8-10-------------|
A|-10-10-10-10-10-10------8-8-8-8-8-8-|
E|------------------------------------|

chorus

G|-10-10-10-8-8-8----------------|
D|----------------8-10-10-8------|
A|--------------------------10-8-|
E|-------------------------------|

x2
G|-------------------------------|
D|----------------10-10-10-8-----|
A|-6-6-6-6-6-6-6------------10-8-|
E|-------------------------------|

G|------------------------------------|
D|----------------10-10-8-8-----------|
A|-6-6-6-6-6-6-6------------10-10-8-8-|
E|------------------------------------|

verse2
[ Tab from: http://www.guitartabs.cc/tabs/n/nine_inch_nails/dead_souls_btab_ver_3.html ]
repeat for length of verse getting louder

G|-------------|
D|-------------|
A|-10-10-10-10-|
E|-------------|

and if you think it should be played lower play it like this
verse

G|------------------------------|
D|------------------------------|
A|--------------1-3-------------|
E|-3-3-3-3-3-3------1-1-1-1-1-1-|

G|------------------------------|
D|------------------------------|
A|--------------1---------------|
E|-3-3-3-3-3-3----3-1-1-1-1-1-1-|

chorus

G|--------------------------|
D|-3-3-3-1-1-1--------------|
A|--------------1-3-3-1-----|
E|----------------------3-1-|

u wud have to tune it down to get that lowest note
x2
G|----------------------------|
D|----------------------------|
A|----------------3-3-3-1-----|
E|-0-0-0-0-0-0-0----------3-1-|

G|---------------------------------|
D|---------------------------------|
A|----------------3-3-1-1----------|
E|-0-0-0-0-0-0-0-----------3-3-1-1-|

verse2

repeat for length of verse getting louder

G|---------|
D|---------|
A|---------|
E|-3-3-3-3-|


| /  slide up
| \  slide down
| h  hammer-on
| p  pull-off
| ~  vibrato
| +  harmonic
| x  Mute note
===============================================================================
Comments