Nine Inch Nails - Dead Souls Chords & Tabs

 

Dead Souls Chords & Tabs

Nine Inch Nails Chords & Tabs

Version: 1 Type: Bass Tab 0 ratings
1 star 2 stars 3 stars 4 stars 5 stars
comments

Dead Souls Bass Tab

NIN - Dead souls
This is my version, if you listen to the song you will hear a note lower than 
an E, therefore go to drop D tuning. That is drop your E to a D.

Verse riff
"Someone take these dreams away...."
G-------------------------------|-------------------------------
D-------------------------------|-------------------------------
A-------------1-----------------|-------------1-3---------------
E-4-4-4-4-4-4---4--2-2-2--2-2---|-4-4-4-4-4-4-----2-2-2--2-2----
[ Tab from: http://www.guitartabs.cc/tabs/n/nine_inch_nails/dead_souls_btab.html ]
Chorus riff 
"They keep calling me...."      "They keep calling me-e...."
G-------------------------------|-------------------------------
D-3333-3-1-1-1-1----------------|-------------------------------Repeat this
A----------------1-3-3-1--------|---------------3-3-3-1---------little bar.
E----------------^-------4-2----|-0-0-0-0-0-0-0---------4-2-----
                 ?This could be a 3

"Keep on calling me.."
G---------------------------------
D---------------------------------
A---------------3-3-1-1-----------
E-0-0-0-0-0-0-0---------5-5-4-4---

At the end repeat this to fade
A-3-3-3-3-3-3-3-3-3-3-3-3-3-3-3---

Any suggestions/comments? Mail me.
---------- 
Benjamin

"Kinda like a cloud I was up, was up, way up in the sky and I was feeling 
some feelings you wouldn't believe, sometimes I don't believe it myself and 
i decided i was never coming down 
Just then a tiny little dot caught my eye it was just about too small to see 
but i watched it way too long, it was pulling me down...."
		         	
E-mail: j6872839@ironbark.bendigo.latrobe.edu.au	
URL: http://ironbark.bendigo.latrobe.edu.au/~j6872839/westy.html
------------------------------------------------------------------

Comments