Nine Inch Nails - Closer Chords & Tabs

 

Closer Chords & Tabs

Nine Inch Nails Chords & Tabs

Version: 1 Type: Bass Tab 0 ratings
1 star 2 stars 3 stars 4 stars 5 stars
comments

Closer Bass Tab

   
title-closer
artist-nine inch nails
tabbed by-bobby siegfried
type-bass tablature
send comments, corrections, tabs to: rustyrptle@aol.com
h=hammer on
[ Tab from: http://www.guitartabs.cc/tabs/n/nine_inch_nails/closer_btab.html ]
VERSE w/ wah pedal
G| ------------------------------------------ |
D|.-----10------------8------10-------8------.|
A|.--------------9h10-------------------10-9-.|
E| -8-8-----8-8----------8-8-----8-8--------- |

CHORUS
G| -------------- |
D|.--------------.|
A|.----------1-2-.|
E| -1-1-1-1------ |

AFTER 2nd CHORUS
G| --------- |
D|.---------.|
A|.---------.|
E| -0-0-0-1- |

EVEN AFTER THAT...
G| ---------------------8- |
D|.-10-8-10-8-8-10-8-10---.|
A|.-----------------------.|
E| ----------------------- |

Comments