Nine Inch Nails - All The Love In The World Chords & Tabs

 

All The Love In The World Chords & Tabs

Nine Inch Nails Chords & Tabs

Version: 1 Type: Bass Tab 0 ratings
1 star 2 stars 3 stars 4 stars 5 stars
comments

All The Love In The World Bass Tab

----------------------------------------------------------------------------            
ALL THE LOVE IN THE WORLD - Nine Inch Nails                    
----------------------------------------------------------------------------

Tabbed By : Kurt
e-mail: kurtkluba@hotmail.com

Tuning: Standard

G|-------------------------------------------|-----------------------------|
D|------------------------1-1-1-1------------|--------------1-3-3-3--------|
A|-3-3-3-3-3-3-1-3-4-3------------1-1-1-1----|-----------------------------|
E|-------------------------------------------|--1-3-3-3-3-3----------------|
[ Tab from: http://www.guitartabs.cc/tabs/n/nine_inch_nails/all_the_love_in_the_world_btab.html ]
G|----------------------|--------------------------------------------------|
D|--3----------1-3-3-3--|--3-----------------------------------------------|
A|----------------------|--------------1-1-1-(fading echo effect)----------|
E|---3-3-3-3-3----------|----3-3-3-3-3-------------------------------------|

G|-------------------------------------------------|-----------------------|
D|--3h5-5p3h5-5p3-0------------------------1-1-3-3-|--5-(let ring)---------|
A|------------------1-1-1--------3-3-3p1h3---------|-----------------------|
E|------------------------1-1-1--------------------|-----------------------|

Note: With the echo effect, just hit the A string lighter each time. The last
part you let ring as the piano plays out. For everythign else, you shoudl be
able to determine when to play it by listening to the song. Enjoy.

h - hammer-on
p - pull-off
Comments