Nine Days - Story Of A Girl Chords & Tabs

 

Story Of A Girl Chords & Tabs

Nine Days Chords & Tabs

Version: 1 Type: Tab

Story Of A Girl Tab

STORY OF A GIRL
NINE DAYS


4/4


 1    2                                 3
|----|--3----3---3----3--3---3---3--3--|--3----3---3----2--2---2---2--2--|
|----|--3----3---3----3--3---3---3--3--|--3----3---3----3--3---3---3--3--|
|----|--0----0---0----0--0---0---0--0--|--2----2---2----2--2---2---2--2--|
|----|--2----2---2----0--0---0---0--0--|--2----2---2----0--0---0---0--0--|
|----|--3----3---3----2--2---2---2--2--|--0----0---0---------------------|
|----|----------------3--3---3---3--3--|---------------------------------|



 4                      5
|--2----2----3----3----|--3----3--3--3--3--3--3-------|
|--3----3----3----3----|--3----3--3--3--3--3--3-------|
|--4----4----0----0----|--2----2--2--2--2--2--2-------|
|--4----4----2----2----|--2----2--2--2--2--2--2-------|
|--2----2----3----3----|--0----0--0--0--0--0--0-------|
|----------------------|------------------------------|

[ Tab from: http://www.guitartabs.cc/tabs/n/nine_days/story_of_a_girl_tab.html ]
 6                                  7
|-3----3--3----3--x--x--10---x--8--|-3----3--3----3--x--x--10---x--8--|
|-3----3--3----3--x--x--10---x--8--|-3----3--3----3--x--x--10---x--8--|
|-4----4--4----4--x--x--11---x--9--|-4----4--4----4--x--x--11---x--9--|
|-5----5--5----5--x--x--12---x--10-|-5----5--5----5--x--x--12---x--10-|
|----------------------------------|----------------------------------|
|----------------------------------|----------------------------------|


 8/10/12/14                            9/11/13/15                           Repeat
|--2-2-2-2-2---x-x-x-8----8--8---x-x--|--3-3-3-3-3---x-x-x-5---5-5---x-x--| 4 more times
|--3-3-3-3-3---x-x-x-8----8--8---x-x--|--3-3-3-3-3---x-x-x-7---7-7---x-x--|
|--4-4-4-4-4---x-x-x-9----9--9---x-x--|--4-4-4-4-4---x-x-x-7---7-7---x-x--|
|--4-4-4-4-4---x-x-x-10---10-10--x-x--|--5-5-5-5-5---x-x-x-7---7-7---x-x--|
|-------------------------------------|-----------------------------------|
|-------------------------------------|-----------------------------------|




**Repeat Measures #1-7