Nine Black Alps - Unsatisfied Chords & Tabs

 

Unsatisfied Chords & Tabs

Nine Black Alps Chords & Tabs

Version: 2 Type: Tab 0 ratings
1 star 2 stars 3 stars 4 stars 5 stars
comments

Unsatisfied Tab

   
Nine Black Alps - Unsatisfied
From the album Everything Is
Tabbed by Sam King

they play it tuned down but ive tabbed it in standard to save the hassle, i think its accurate

intro/verse
e-12-12-12-12-12-12-12-12-12-12-12-14-14-14-14-|
b----------------------------------------------|
g----------------------------------------------|
D----------------------------------------------|
A----------------------------------------------|
E----------------------------------------------|

e-11-11-11-11-11-11-11-11-12-12-12-12-11-11-11-11-|
b-------------------------------------------------|
g-------------------------------------------------|
D-------------------------------------------------|
A-------------------------------------------------|
E-------------------------------------------------|

repeat those two bars with 2nd guitar

e---------------------------------|
b-5-5-------------5-5-------------|
g-----4-4-----4-4-----4-4-----4-4-|
D---------6-6-------------6-6-----|
A---------------------------------|
E---------------------------------|

e---------------------------------|
b-4-4-------------4-4-------------|
g-----4-4-----4-4-----4-4-----4-4-|
D---------6-6-------------6-6-----|
A---------------------------------|
E---------------------------------|





then you get this on the 1st guitar, 2nd guitar the same

e-16-16-16-16-16-16-16-16-16-16-16-14-14-14-14-|
b----------------------------------------------|
g----------------------------------------------|
D----------------------------------------------|
A----------------------------------------------|
E----------------------------------------------|

e-11-11-11-11-11-11-11-11-12-12-12-12-11-11-11-11-|
b-------------------------------------------------|
g-------------------------------------------------|
D-------------------------------------------------|
A-------------------------------------------------|
E-------------------------------------------------|

bridge
e-4----4----|-2----4----|
b-5----4----|-2----4----|
g-6----4----|-3----4----| x3
D-6----6----|-4----6----|
A-4----6----|-4----6----|
E------4----|-2----4----|
[ Tab from: http://www.guitartabs.cc/tabs/n/nine_black_alps/unsatisfied_tab_ver_2.html ]
e-4-------|---------|
b-5-------|-11------|
g-6-------|-11------|
D-6-------|-11------|
A-4-------|-9-------|
E---------|---------|

chorus
1st guitar
e----------------------|-------------------|
b-------------12-------|-------------------|
g-13-13-11-13----13-11-|-13-13-13-13-13-13-| x2
D----------------------|-------------------|
A----------------------|-------------------|
E----------------------|-------------------|

2nd guitar
e-0--------------------|-4-----------------|
b-0--------------------|-4-----------------|
g-1--------------------|-4-----------------| x2
D-2--------------------|-6-----------------|
A-2--------------------|-6-----------------|
E-0--------------------|-4-----------------|

1st guitar
e-----------------------|-----------------------|-------|
b14-14-14-14-12-12-12-12|11-11-11-11-10-10-10-10|9------|
g-----------------------|-----------------------|-------|
D-----------------------|-----------------------|-------|
A-----------------------|-----------------------|-------|
E-----------------------|-----------------------|-------|





2nd guitar
e-----------------|-----------------|-----------|
b-----------------|-----------------|-----------|
g-6-6-6-6-4-4-4-4-|-3-3-3-3-2-2-2-2-|-----------|
D-6-6-6-6-4-4-4-4-|-3-3-3-3-2-2-2-2-|-6---------|
A-4-4-4-4-2-2-2-2-|-1-1-1-1-0-0-0-0-|-6---------|
E-----------------|-----------------|-4---------|

Middle
e---------|------------------|
b---------|------------------|
g-4---7---|-6--------4---7---|
D-4---7---|-6--------4---7---| x 4
A-2---5---|-4--------2---5---|
E---------|------------------|

Last Chorus
1st guitar
e----------------------|-------------------|
b-------------12-------|-------------------|
g-13-13-11-13----13-11-|-13-13-13-13-13-13-| x8
D----------------------|-------------------|
A----------------------|-------------------|
E----------------------|-------------------|

2nd guitar
e-0--------------------|-4-----------------|
b-0--------------------|-4-----------------|
g-1--------------------|-4-----------------| x8
D-2--------------------|-6-----------------|
A-2--------------------|-6-----------------|
E-0--------------------|-4-----------------|
Comments