Nine Black Alps - Unsatisfied Chords & Tabs

 

Unsatisfied Chords & Tabs

Nine Black Alps Chords & Tabs

Version: 1 Type: Tab 0 ratings
1 star 2 stars 3 stars 4 stars 5 stars
comments

Unsatisfied Tab

   
Artist: Nine Black Alps
Song: Unsatisfied
Album: Everything Is
Tuning: D G C F A D
Tabbed By James Morris
Date: 28.06.2005

Updated-28.10.05

Intro
Guitar 1
D|-------------------------------------------------|
A|-19-19-19-19-19-19-19-19-19-19-19-19-21-21-21-21-|
F|-------------------------------------------------|
C|-------------------------------------------------|
G|-------------------------------------------------|
D|-------------------------------------------------|

D|-------------------------------------------------|
A|-18-18-18-18-18-18-18-18-19-19-19-19-18-18-18-18-|
F|-------------------------------------------------|
C|-------------------------------------------------|
G|-------------------------------------------------|
D|-------------------------------------------------|

Main Riff
Guitar 1
D|-------------------------------------------------|
A|-19-19-19-19-19-19-19-19-19-19-19-19-21-21-21-21-|
F|-------------------------------------------------|
C|-------------------------------------------------|
G|-------------------------------------------------|
D|-------------------------------------------------|

D|-------------------------------------------------|
A|-18-18-18-18-18-18-18-18-19-19-19-19-18-18-18-18-|
F|-------------------------------------------------|
C|-------------------------------------------------|
G|-------------------------------------------------|
D|-------------------------------------------------|

Guitar 2
D|-2-2-------------2-2-------------1-1-------------1-1-------------|
A|-----2-2-----2-2-----2-2-----2-2-----2-2-----2-2-----2-2-----2-2-|
F|---------3-3-------------3-3-------------3-3-------------3-3-----|
C|-----------------------------------------------------------------|
G|-----------------------------------------------------------------|
D|-----------------------------------------------------------------|

Guitar 1
D|-18-18-18-18-18-18-18-18-------------------------|
A|-------------------------21-21-21-21-21-21-21-21-|
F|-------------------------------------------------|
C|-------------------------------------------------|
G|-------------------------------------------------|
D|-------------------------------------------------|

D|-------------------------------------------------|
A|-18-18-18-18-18-18-18-18-19-19-19-19-18-18-18-18-|
F|-------------------------------------------------|
C|-------------------------------------------------|
G|-------------------------------------------------|
D|-------------------------------------------------|

Guitar 2
D|-2-2-------------2-2-------------1-1-------------1-1-------------|
A|-----2-2-----2-2-----2-2-----2-2-----2-2-----2-2-----2-2-----2-2-|
F|---------3-3-------------3-3-------------3-3-------------3-3-----|
C|-----------------------------------------------------------------|
G|-----------------------------------------------------------------|
D|-----------------------------------------------------------------|

Guitar 1
D|-------------------------------------------------|
A|-19-19-19-19-19-19-19-19-19-19-19-19-21-21-21-21-|
F|-------------------------------------------------|
C|-------------------------------------------------|
G|-------------------------------------------------|
D|-------------------------------------------------|

D|-------------------------------------------------|
A|-18-18-18-18-18-18-18-18-19-19-19-19-18-18-18-18-|
F|-------------------------------------------------|
C|-------------------------------------------------|
G|-------------------------------------------------|
D|-------------------------------------------------|

Guitar 2
D|-2-2-------------2-2-------------1-1-------------1-1-------------|
A|-----2-2-----2-2-----2-2-----2-2-----2-2-----2-2-----2-2-----2-2-|
F|---------3-3-------------3-3-------------3-3-------------3-3-----|
C|-----------------------------------------------------------------|
G|-----------------------------------------------------------------|
D|-----------------------------------------------------------------|

Bass
F|-----------------------------------------------------------------|
C|-----------------------------------------------------------------|
G|--------------------------------/8-8-8-8-8-8-8-8-8-8-8-8-8-8-8-8-|
D|-2-2-2-2-2-2-2-2-2-2-2-2-2-2-2-2/--------------------------------|


Guitar 1
D|-18-18-18-18-18-18-18-18-------------------------|
A|-------------------------21-21-21-21-21-21-21-21-|
F|-------------------------------------------------|
C|-------------------------------------------------|
G|-------------------------------------------------|
D|-------------------------------------------------|

D|-------------------------------------------------|
A|-18-18-18-18-18-18-18-18-19-19-19-19-18-18-18-18-|
F|-------------------------------------------------|
C|-------------------------------------------------|
G|-------------------------------------------------|
D|-------------------------------------------------|

Guitar 2
D|-2-2-------------2-2-------------1-1-------------1-1-------------|
A|-----2-2-----2-2-----2-2-----2-2-----2-2-----2-2-----2-2-----2-2-|
F|---------3-3-------------3-3-------------3-3-------------3-3-----|
C|-----------------------------------------------------------------|
G|-----------------------------------------------------------------|
D|-----------------------------------------------------------------|

Bass
F|-----------------------------------------------------------------|
C|-----------------------------------------------------------------|
G|--------------------------------/8-8-8-8-8-8-8-8-8-8-8-8-8-8-8-8-|
D|-2-2-2-2-2-2-2-2-2-2-2-2-2-2-2-2/--------------------------------|

Verse
Guitar 1
D|-------------------------------------------------|
A|-19-19-19-19-19-19-19-19-19-19-19-19-21-21-21-21-|
F|-------------------------------------------------|
C|-------------------------------------------------|
G|-------------------------------------------------|
D|-------------------------------------------------|

D|-------------------------------------------------|
A|-18-18-18-18-18-18-18-18-19-19-19-19-18-18-18-18-|
F|-------------------------------------------------|
C|-------------------------------------------------|
G|-------------------------------------------------|
D|-------------------------------------------------|

Guitar 2
D|-2-2-------------2-2-------------1-1-------------1-1-------------|
A|-----2-2-----2-2-----2-2-----2-2-----2-2-----2-2-----2-2-----2-2-|
F|---------3-3-------------3-3-------------3-3-------------3-3-----|
C|-----------------------------------------------------------------|
G|-----------------------------------------------------------------|
D|-----------------------------------------------------------------|

Bass
F|-----------------------------------------------------------------|
C|-----------------------------------------------------------------|
G|--------------------------------/8-8-8-8-8-8-8-8-8-8-8-8-8-8-8-8-|
D|-2-2-2-2-2-2-2-2-2-2-2-2-2-2-2-2/--------------------------------|


Guitar 1
D|-18-18-18-18-18-18-18-18-------------------------|
A|-------------------------21-21-21-21-21-21-21-21-|
F|-------------------------------------------------|
C|-------------------------------------------------|
G|-------------------------------------------------|
D|-------------------------------------------------|

D|-----------------------------------------------|
A|-18-18-18-18-18-18-18-18-19-19-19-19-18-18\7-7-|
F|-------------------------------------------8-8-|
C|-------------------------------------------8-8-|
G|-------------------------------------------6-6-|
D|-----------------------------------------------|

Guitar 2
D|-2-2-------------2-2-------------1-1-------------1-1-------------|
A|-----2-2-----2-2-----2-2-----2-2-----2-2-----2-2-----2-2-----7-7-|
F|---------3-3-------------3-3-------------3-3-------------3-3-8-8-|
C|-------------------------------------------------------------8-8-|
G|-------------------------------------------------------------6-6-|
D|-----------------------------------------------------------------|

Bass
F|-----------------------------------------------------------------|
C|-----------------------------------------------------------------|
G|--------------------------------/8-8-8-8-8-8-8-8-8-8-8-8-8-8\6-6-|
D|-2-2-2-2-2-2-2-2-2-2-2-2-2-2-2-2/--------------------------------|

Chorus
Both Guitars
D|----------------------------|
A|------------------------7-7-|
F|-7--7/x-5/7-x-7-7-7-7-x-8-8-|
C|-8--8/x-6/8-x-8-8-8-8-x-8-8-| x2
G|-8--8/x-6/8-x-8-8-8-8-x-6-6-|
D|-6--6/x-4/6-x-6-6-6-6-x-----|

Guitar 1
D|--------------------------------------------------------|
A|------------------------7-7-7-7-7-7-7-7-----------------|
F|-7--7/x-5/7-x-7-7-7-7-x-8-8-8-8-8-8-8-8-5-5-5-5-5-5-5-5-|
C|-8--8/x-6/8-x-8-8-8-8-x-8-8-8-8-8-8-8-8-6-6-6-6-6-6-6-6-| 
G|-8--8/x-6/8-x-8-8-8-8-x-6-6-6-6-6-6-6-6-6-6-6-6-6-6-6-6-|
D|-6--6/x-4/6-x-6-6-6-6-x-----------------4-4-4-4-4-4-4-4-|

Guitar 2
D|----------------------------------------------------------------|
A|------------------------7-7-7-7-7-7-7-7-13-13-13-13-13-13-13-13-|
F|-7--7/x-5/7-x-7-7-7-7-x-8-8-8-8-8-8-8-8-13-13-13-13-13-13-13-13-|
C|-8--8/x-6/8-x-8-8-8-8-x-8-8-8-8-8-8-8-8-13-13-13-13-13-13-13-13-| 
G|-8--8/x-6/8-x-8-8-8-8-x-6-6-6-6-6-6-6-6-11-11-11-11-11-11-11-11-|
D|-6--6/x-4/6-x-6-6-6-6-x-----------------------------------------|

Post Chorus/Bridge
Guitar 1
D|-------------------------------------------------|
A|------------14-----------------------------------|
F|-15~~-13-15----15-13-15~~-15-15--15-15-15--15-15-|
C|-------------------------------------------------|
G|-------------------------------------------------|
D|-------------------------------------------------|

Guitar 2
D|---------------------------------|
A|-2-2-2-2-2-2-2-2-3-3-3-3-3-3-3-3-|
F|-3-3-3-3-3-3-3-3-3-3-3-3-3-3-3-3-|
C|-4-4-4-4-4-4-4-4-3-3-3-3-3-3-3-3-|
G|-4-4-4-4-4-4-4-4-1-1-1-1-1-1-1-1-|
D|-2-2-2-2-2-2-2-2-----------------|

Guitar 1
D|-------------------------------------------------|
A|------------14-----------------------------------|
F|-15~~-13-15----15-13-15~~-15-15--15-15-15--15-15-|
C|-------------------------------------------------|
G|-------------------------------------------------|
D|-------------------------------------------------|

Guitar 2
D|---------------------------------|
A|-2-2-2-2-2-2-2-2-3-3-3-3-3-3-3-3-|
F|-3-3-3-3-3-3-3-3-3-3-3-3-3-3-3-3-|
C|-4-4-4-4-4-4-4-4-3-3-3-3-3-3-3-3-|
G|-4-4-4-4-4-4-4-4-1-1-1-1-1-1-1-1-|
D|-2-2-2-2-2-2-2-2-----------------|

D|-------------------------------------------------|
A|-------------------------------------------------|
F|-20-20-20-20-18-18-18-18-17-17-17-17-16-16-16-16-|
C|-------------------------------------------------|
G|-------------------------------------------------|
D|-------------------------------------------------|

Guitar 2
D|---------------------------------|
A|-8-8-8-8-6-6-6-6-5-5-5-5-4-4-4-4-|
F|-8-8-8-8-6-6-6-6-5-5-5-5-4-4-4-4-|
C|-8-8-8-8-6-6-6-6-5-5-5-5-4-4-4-4-|
G|-6-6-6-6-4-4-4-4-3-3-3-3-2-2-2-2-|
D|---------------------------------|

Guitar 1
D|-------------------------------------------------|
A|------------------------/18-18-18-18-18-18-18-18-|
F|-15-15-15-15-15-15-15-15/------------------------|
C|-------------------------------------------------|
G|-------------------------------------------------|
D|-------------------------------------------------|

Guitar 2
D|-----------------------------------------|
A|-3-3-3-3-3-3-3-3-15-15-15-15-15-15-15-15-|
F|-3-3-3-3-3-3-3-3-15-15-15-15-15-15-15-15-|
C|-3-3-3-3-3-3-3-3-15-15-15-15-15-15-15-15-|
G|-1-1-1-1-1-1-1-1-13-13-13-13-13-13-13-13-|
D|-----------------------------------------|
[ Tab from: http://www.guitartabs.cc/tabs/n/nine_black_alps/unsatisfied_tab.html ]
Main Riff
Guitar 1
D|-------------------------------------------------|
A|-19-19-19-19-19-19-19-19-19-19-19-19-21-21-21-21-|
F|-------------------------------------------------|
C|-------------------------------------------------|
G|-------------------------------------------------|
D|-------------------------------------------------|

D|-------------------------------------------------|
A|-18-18-18-18-18-18-18-18-19-19-19-19-18-18-18-18-|
F|-------------------------------------------------|
C|-------------------------------------------------|
G|-------------------------------------------------|
D|-------------------------------------------------|

Guitar 2
D|-2-2-------------2-2-------------1-1-------------1-1-------------|
A|-----2-2-----2-2-----2-2-----2-2-----2-2-----2-2-----2-2-----2-2-|
F|---------3-3-------------3-3-------------3-3-------------3-3-----|
C|-----------------------------------------------------------------|
G|-----------------------------------------------------------------|
D|-----------------------------------------------------------------|

Bass
F|-----------------------------------------------------------------|
C|-----------------------------------------------------------------|
G|--------------------------------/8-8-8-8-8-8-8-8-8-8-8-8-8-8-8-8-|
D|-2-2-2-2-2-2-2-2-2-2-2-2-2-2-2-2/--------------------------------|


Guitar 1
D|-18-18-18-18-18-18-18-18-------------------------|
A|-------------------------21-21-21-21-21-21-21-21-|
F|-------------------------------------------------|
C|-------------------------------------------------|
G|-------------------------------------------------|
D|-------------------------------------------------|

D|-------------------------------------------------|
A|-18-18-18-18-18-18-18-18-19-19-19-19-18-18-18-18-|
F|-------------------------------------------------|
C|-------------------------------------------------|
G|-------------------------------------------------|
D|-------------------------------------------------|

Guitar 2
D|-2-2-------------2-2-------------1-1-------------1-1-------------|
A|-----2-2-----2-2-----2-2-----2-2-----2-2-----2-2-----2-2-----2-2-|
F|---------3-3-------------3-3-------------3-3-------------3-3-----|
C|-----------------------------------------------------------------|
G|-----------------------------------------------------------------|
D|-----------------------------------------------------------------|

Bass
F|-----------------------------------------------------------------|
C|-----------------------------------------------------------------|
G|--------------------------------/8-8-8-8-8-8-8-8-8-8-8-8-8-8-8-8-|
D|-2-2-2-2-2-2-2-2-2-2-2-2-2-2-2-2/--------------------------------|

Verse
Guitar 1
D|-------------------------------------------------|
A|-19-19-19-19-19-19-19-19-19-19-19-19-21-21-21-21-|
F|-------------------------------------------------|
C|-------------------------------------------------|
G|-------------------------------------------------|
D|-------------------------------------------------|

D|-------------------------------------------------|
A|-18-18-18-18-18-18-18-18-19-19-19-19-18-18-18-18-|
F|-------------------------------------------------|
C|-------------------------------------------------|
G|-------------------------------------------------|
D|-------------------------------------------------|

Guitar 2
D|-2-2-------------2-2-------------1-1-------------1-1-------------|
A|-----2-2-----2-2-----2-2-----2-2-----2-2-----2-2-----2-2-----2-2-|
F|---------3-3-------------3-3-------------3-3-------------3-3-----|
C|-----------------------------------------------------------------|
G|-----------------------------------------------------------------|
D|-----------------------------------------------------------------|

Bass
F|-----------------------------------------------------------------|
C|-----------------------------------------------------------------|
G|--------------------------------/8-8-8-8-8-8-8-8-8-8-8-8-8-8-8-8-|
D|-2-2-2-2-2-2-2-2-2-2-2-2-2-2-2-2/--------------------------------|


Guitar 1
D|-18-18-18-18-18-18-18-18-------------------------|
A|-------------------------21-21-21-21-21-21-21-21-|
F|-------------------------------------------------|
C|-------------------------------------------------|
G|-------------------------------------------------|
D|-------------------------------------------------|

D|-----------------------------------------------|
A|-18-18-18-18-18-18-18-18-19-19-19-19-18-18\7-7-|
F|-------------------------------------------8-8-|
C|-------------------------------------------8-8-|
G|-------------------------------------------6-6-|
D|-----------------------------------------------|

Guitar 2
D|-2-2-------------2-2-------------1-1-------------1-1-------------|
A|-----2-2-----2-2-----2-2-----2-2-----2-2-----2-2-----2-2-----7-7-|
F|---------3-3-------------3-3-------------3-3-------------3-3-8-8-|
C|-------------------------------------------------------------8-8-|
G|-------------------------------------------------------------6-6-|
D|-----------------------------------------------------------------|

Bass
F|-----------------------------------------------------------------|
C|-----------------------------------------------------------------|
G|--------------------------------/8-8-8-8-8-8-8-8-8-8-8-8-8-8\6-6-|
D|-2-2-2-2-2-2-2-2-2-2-2-2-2-2-2-2/--------------------------------|

Chorus
Both Guitars
D|----------------------------|
A|------------------------7-7-|
F|-7--7/x-5/7-x-7-7-7-7-x-8-8-|
C|-8--8/x-6/8-x-8-8-8-8-x-8-8-| x2
G|-8--8/x-6/8-x-8-8-8-8-x-6-6-|
D|-6--6/x-4/6-x-6-6-6-6-x-----|

Guitar 1
D|--------------------------------------------------------|
A|------------------------7-7-7-7-7-7-7-7-----------------|
F|-7--7/x-5/7-x-7-7-7-7-x-8-8-8-8-8-8-8-8-5-5-5-5-5-5-5-5-|
C|-8--8/x-6/8-x-8-8-8-8-x-8-8-8-8-8-8-8-8-6-6-6-6-6-6-6-6-| 
G|-8--8/x-6/8-x-8-8-8-8-x-6-6-6-6-6-6-6-6-6-6-6-6-6-6-6-6-|
D|-6--6/x-4/6-x-6-6-6-6-x-----------------4-4-4-4-4-4-4-4-|

Guitar 2
D|----------------------------------------------------------------|
A|------------------------7-7-7-7-7-7-7-7-13-13-13-13-13-13-13-13-|
F|-7--7/x-5/7-x-7-7-7-7-x-8-8-8-8-8-8-8-8-13-13-13-13-13-13-13-13-|
C|-8--8/x-6/8-x-8-8-8-8-x-8-8-8-8-8-8-8-8-13-13-13-13-13-13-13-13-| 
G|-8--8/x-6/8-x-8-8-8-8-x-6-6-6-6-6-6-6-6-11-11-11-11-11-11-11-11-|
D|-6--6/x-4/6-x-6-6-6-6-x-----------------------------------------|

Post Chorus/Bridge
Guitar 1
D|-------------------------------------------------|
A|------------14-----------------------------------|
F|-15~~-13-15----15-13-15~~-15-15--15-15-15--15-15-|
C|-------------------------------------------------|
G|-------------------------------------------------|
D|-------------------------------------------------|

Guitar 2
D|---------------------------------|
A|-2-2-2-2-2-2-2-2-3-3-3-3-3-3-3-3-|
F|-3-3-3-3-3-3-3-3-3-3-3-3-3-3-3-3-|
C|-4-4-4-4-4-4-4-4-3-3-3-3-3-3-3-3-|
G|-4-4-4-4-4-4-4-4-1-1-1-1-1-1-1-1-|
D|-2-2-2-2-2-2-2-2-----------------|

Guitar 1
D|-------------------------------------------------|
A|------------14-----------------------------------|
F|-15~~-13-15----15-13-15~~-15-15--15-15-15--15-15-|
C|-------------------------------------------------|
G|-------------------------------------------------|
D|-------------------------------------------------|

Guitar 2
D|---------------------------------|
A|-2-2-2-2-2-2-2-2-3-3-3-3-3-3-3-3-|
F|-3-3-3-3-3-3-3-3-3-3-3-3-3-3-3-3-|
C|-4-4-4-4-4-4-4-4-3-3-3-3-3-3-3-3-|
G|-4-4-4-4-4-4-4-4-1-1-1-1-1-1-1-1-|
D|-2-2-2-2-2-2-2-2-----------------|

D|-------------------------------------------------|
A|-------------------------------------------------|
F|-20-20-20-20-18-18-18-18-17-17-17-17-16-16-16-16-|
C|-------------------------------------------------|
G|-------------------------------------------------|
D|-------------------------------------------------|

Guitar 2
D|---------------------------------|
A|-8-8-8-8-6-6-6-6-5-5-5-5-4-4-4-4-|
F|-8-8-8-8-6-6-6-6-5-5-5-5-4-4-4-4-|
C|-8-8-8-8-6-6-6-6-5-5-5-5-4-4-4-4-|
G|-6-6-6-6-4-4-4-4-3-3-3-3-2-2-2-2-|
D|---------------------------------|

Guitar 1
D|-------------------------------------------------|
A|------------------------/18-18-18-18-18-18-18-18-|
F|-15-15-15-15-15-15-15-15/------------------------|
C|-------------------------------------------------|
G|-------------------------------------------------|
D|-------------------------------------------------|

Guitar 2
D|-----------------------------------------|
A|-3-3-3-3-3-3-3-3-15-15-15-15-15-15-15-15-|
F|-3-3-3-3-3-3-3-3-15-15-15-15-15-15-15-15-|
C|-3-3-3-3-3-3-3-3-15-15-15-15-15-15-15-15-|
G|-1-1-1-1-1-1-1-1-13-13-13-13-13-13-13-13-|
D|-----------------------------------------|

Interlude
Both Guitars
D|----------------------|
A|-5-5/8-7--7-7-7-7-7-7-|
F|-6-6/9-8--8-8-8-8-8-8-| x3
C|-6-6/9-8--8-8-8-8-8-8-|
G|-4-4/7-6--6-6-6-6-6-6-|
D|----------------------|

D|--------------------------------------|
A|-5-5/8-7--7-7-7-7-7-7-7-7-7-7-7-7-7-7-|
F|-6-6/9-8--8-8-8-8-8-8-8-8-8-8-8-8-8-8-|
C|-6-6/9-8--8-8-8-8-8-8-8-8-8-8-8-8-8-8-|
G|-4-4/7-6--6-6-6-6-6-6-6-6-6-6-6-6-6-6-|
D|--------------------------------------|

Outro
Guitar 1
D|-------------------------------------------------|
A|------------14-----------------------------------|
F|-15~~-13-15----15-13-15~~-15-15--15-15-15--15-15-|
C|-------------------------------------------------| x4
G|-------------------------------------------------|
D|-------------------------------------------------|

Guitar 2
D|---------------------------------|
A|-2-2-2-2-2-2-2-2-3-3-3-3-3-3-3-3-|
F|-3-3-3-3-3-3-3-3-3-3-3-3-3-3-3-3-|
C|-4-4-4-4-4-4-4-4-3-3-3-3-3-3-3-3-| x4
G|-4-4-4-4-4-4-4-4-1-1-1-1-1-1-1-1-|
D|-2-2-2-2-2-2-2-2-----------------|

D|-------------------------------------------------|
A|------------14-----------------------------------|
F|-15~~-13-15----15-13-15~~-15-15--15-15-15bu(16)~-|
C|-------------------------------------------------| x3
G|-------------------------------------------------|
D|-------------------------------------------------|

Guitar 2
D|---------------------------------|
A|-2-2-2-2-2-2-2-2-3-3-3-3-3-3-3-3-|
F|-3-3-3-3-3-3-3-3-3-3-3-3-3-3-3-3-|
C|-4-4-4-4-4-4-4-4-3-3-3-3-3-3-3-3-| x3
G|-4-4-4-4-4-4-4-4-1-1-1-1-1-1-1-1-|
D|-2-2-2-2-2-2-2-2-----------------|

End On
Guitar 1
D|-----------------------------------------------------------------|
A|-------------14--------------------------------------------------|
F|-15~~-13-15------15---13-----15~~~~~~~~~~~/x~~~///x/~~~~~~~~~~~~~|
C|-----------------------------------------------------------------| 
G|-----------------------------------------------------------------|
D|-----------------------------------------------------------------|

Guitar 2
D|-----------------------------------------------------------------|
A|-2-2--2--2--2---2----2----2---3~~~~~~~~~~~~~~~~~~~~~~~~~~~~~~~~--|
F|-3-3--3--3--3---3----3----3---3~~~--~~~~~~~~~~~~~~~~~~~~~~~~~~~--|
C|-4-4--4--4--4---4----4----4---3~~~--~~~~~~~~~~~~~~~~~~~~~~~~~~~--| 
G|-4-4--4--4--4---4----4----4---1~~~~~~~~~~~~~~~~~~~~~~~~~~~~~~~~--|
D|-2-2--2--2--2---2----2----2---------x/~~~~~~~~~~~~///x~~~~~~~~~~x|

Finish

Lyrics:-

Ten out of ten for a race already run
Bleed in the world 'cause you can't figure out what's wrong

So come back down from your daydream high
Lost for words when you sympathise
There's a million ways to believe you tried
Well I'm, unsatisfied, unsatisfied
Just sick and tired of all I've tried
Unsatisfied

So long since the one lit up your life
So long since you heard from the world outside

Tell yourself it's a part of the plan
Lock and load for the one you stand
There's a million ways to believe you can
Well I'm, unsatisfied, unsatisfied
Just sick and tired of all I've tried
Unsatisfied

Should look where you're going
And where you're gonna hide
You should be feeling something
Of another life

Unsatisfied
Unsatisfied
Unsatisfied
So why do you wanna hide
Every little lie
Keep sane inside
Unsatisfied


End. Please Rate, comment and correct. Thanks. Enjoy.
Comments