Nine Black Alps - Shot Down Chords & Tabs

 

Shot Down Chords & Tabs

Nine Black Alps Chords & Tabs

Version: 3 Type: Tab 0 ratings
1 star 2 stars 3 stars 4 stars 5 stars
comments

Shot Down Tab

Nine Black Alps-Shot Down
Tabbed By Sam King
they play it tuned down but ive tabbed it in standard to save the hassle, i think its accurate

Intro
Guitar 1
e---------------------------|
b---------------------------|
g--11-12-12-12-12-12-12-12--| x4
D--10-11-11-11-11-11-11-11--|
A--11-12-12-12-12-12-12-12--|
E---------------------------|

Verse-just chords, rhythm can be worked out by listening to the song

e-8------5------|
b-10-----5------|
g-10-----5------| x 3 
D-10-----7------|
A-8------7------|
E--------5------|
  funny how the... etc

e-5--------7---|
b-7--------9---|
g-7--------9---|
D-7--------9---|
A-5--------7---|
E--------------|
..how they really live

then repeat

Bridge-again just chords, listen to find rhythm

e------------| 
b-5----------|
g-5----------| x 2
D-4----------|
A-5----------|
E------------|
i dont like this place..
e---------------------------|
b---------------------------|
g--12-12-12-12-12-12-12-12--| x2
D--11-11-11-11-11-11-11-11--|
A--12-12-12-12-12-12-12-12--|
E---------------------------|



e------------| 
b-5----------|
g-5----------| x 2
D-4----------|
A-5----------|
E------------|
you can hide your face...

Chorus
e-8--------|-8---------|-0---------|-----------------|
b-10-------|-8---------|-0---------|-----------------|
g-10-------|-8---------|-1---------|-----------------|
D-10-------|-10--------|-2---------|-7---9---10--12--|
A-8--------|-10--------|-2---------|-x---x---x---x---|
E----------|-8---------|-0---------|-5---7---8---10--|
guns....   shot down    spun round  strung out
[ Tab from: http://www.guitartabs.cc/tabs/n/nine_black_alps/shot_down_tab_ver_3.html ]
e-8--------|-8---------|----------------|-------------|
b-10-------|-8---------|----------------|-------------|
g-10-------|-8---------|----------------|-------------|
D-10-------|-10--------|-7------8-------|-9-----10----|
A-8--------|-10--------|-x------x-------|-x-----x-----|
E----------|-8---------|-5------6-------|-7-----8-----|

repeat verse, bridge, chorus

solo
e------------------------|------------------------|
b------------------------|------------------------|
g-7(8)7p5---------5----5-|-7(8)7p5---------5----5-|
D---------7-7---7---7----|---------7-7---7---7----|
A------------------------|------------------------|
E------------------------|------------------------|

e------------------------|------------------------|
b------------------------|-7-7---5-5---7-7---5-5--|
g-7(8)7p5---------5----5-|-7-7---5-5---7-7---5-5--|
D---------7-7---7---7----|------------------------|
A------------------------|------------------------|
E------------------------|------------------------|

e----------------------|----------------------|
b-10---10---10(12)10p8-|-10---10---10(12)10p8-|
g----------------------|----------------------|
D----------------------|----------------------|
A----------------------|----------------------|
E----------------------|----------------------|


e----------------------|------------------------|
b-10---10---10(12)10p8-|-5-5---7-7---5-5---7-7--|
g----------------------|-5-5---7-7---5-5---7-7--|
D----------------------|------------------------|
A----------------------|------------------------|
E----------------------|------------------------|

repeat bridge and chorus and finish same as the intro. any mistakes or corrections please let me know :)
Comments