Nine Black Alps - Get Your Guns Chords & Tabs

 

Get Your Guns Chords & Tabs

Nine Black Alps Chords & Tabs

Version: 1 Type: Tab 0 ratings
1 star 2 stars 3 stars 4 stars 5 stars
comments

Get Your Guns Tab

   
Artist: Nine Black Alps
Song: Get Your Guns
Album: Everything Is
Tuning: Down A Whole Step- D G C F A D
Tabbed By James Morris
Date: 28.06.05

This is the opening track off the album Everything Is. Also, one of the 
best on the album. I am pretty sure that there are no mistakes, but if you find any, feel free to correct.

Intro
D|-----------------------------------------------------------------|
A|-----------------------------------------------------------------|
F|-----------------------------------------------------------------|
C|-7-7-7-7-7-7-7-7-7-7-7-7-7-7-7-7-7-7-7-7-7-7-7-7-7-7-7-7-7-7-7-7-|
G|-7-7-7-7-7-7-7-7-7-7-7-7-7-7-7-7-7-7-7-7-7-7-7-7-7-7-7-7-7-7-7-7-|
D|-5-5-5-5-5-5-5-5-5-5-5-5-5-5-5-5-5-5-5-5-5-5-5-5-5-5-5-5-5-5-5-5-|

Verse                                _ _ _ _ _ _ _
D|---------------------------------|              |
A|---------------------------------|              |
F|---------------------------------|              |
C|-7-7-7-7-7-7-7-7-7-7-7-7-7-7-7-7-|              |
G|-7-7-7-7-7-7-7-7-7-7-7-7-7-7-7-7-|              |
D|-5-5-5-5-5-5-5-5-5-5-5-5-5-5-5-5-|              | Play this whole
                                                  | sequence 4 times 
D|---------------------------------------|        | 
A|---------------------------------------|        |
F|-5--7-5-7bu8bd7-7-5--5-7-5-7bu8bd7-7-5-|        |
C|-5--7-5-7bu8bd7-7-5--5-7-5-7bu8bd7-7-5-|        |
G|---------------------------------------|        |
D|---------------------------------------|        |
                                     _ _ _ _ _ _ _|
Pre Chorus

D|---------------------------------------|
A|---------------------------------------|
F|-5/7--7-5--5/7--7-5--5/7--7-5/8-8-7-7/-|
C|-5/7--7-5--5/7--7-5--5/7--7-5/8-8-7-7/-| x2
G|-3/5--5-3--3/5--5-3--3/5--5-3/6-6-5-5/-|
D|---------------------------------------|

Build Up
PM------------------------
D|-------------------------------|
A|-------------------------------|
F|-------------------------------|
C|-5-5-5-5-5-5-5-5-5-5-5-5--8--8-|
G|-5-5-5-5-5-5-5-5-5-5-5-5--8--8-|
D|-3-3-3-3-3-3-3-3-3-3-3-3--6--6-|

Chorus

D|---------------------------------|
A|---------------------------------|
F|-----5-5-------------5-5---------|
C|-7-7-5-5-5-5-8-8-7-7-5-5-5-5-8-8-| x2
G|-7-7-3-3-5-5-8-8-7-7-3-3-5-5-8-8-|
C|-5-5-----3-3-6-6-5-5-----3-3-6-6-|

Then

D|----------------------------------------|
A|----------------------------------------|
F|-----5-5--------------------------------|
C|-7-7-5-5-5-5-8-8-3-3-3-3-3-3-3-3-2~~~~~~|
G|-7-7-3-3-5-5-8-8-3-3-3-3-3-3-3-3-2~~~~~~|
C|-5-5-----3-3-6-6-1-1-1-1-1-1-1-1-0~~~~~~|

For the chorus, the bass plays

F|---------------------------------|
C|---------------------------------|
G|-----3-3-----8-8-----3-3-----8-8-|
C|-5-5-----3-3-----5-5-----3-3-----|

F|----------------------------------------|
C|----------------------------------------|
G|-----3-3-----8-8------------------------|
C|-5-5-----3-3-----1-1-1-1-1-1-1-1-0~~~~~~|

Verse                                _ _ _ _ _ _ _
D|---------------------------------|              |
A|---------------------------------|              |
F|---------------------------------|              |
C|-7-7-7-7-7-7-7-7-7-7-7-7-7-7-7-7-|              |
G|-7-7-7-7-7-7-7-7-7-7-7-7-7-7-7-7-|              |
D|-5-5-5-5-5-5-5-5-5-5-5-5-5-5-5-5-|              | Play this whole
                                                  | sequence 4 times 
D|---------------------------------------|        | 
A|---------------------------------------|        |
F|-5--7-5-7bu8bd7-7-5--5-7-5-7bu8bd7-7-5-|        |
C|-5--7-5-7bu8bd7-7-5--5-7-5-7bu8bd7-7-5-|        |
G|---------------------------------------|        |
D|---------------------------------------|        |
                                     _ _ _ _ _ _ _|
Pre Chorus

D|---------------------------------------|
A|---------------------------------------|
F|-5/7--7-5--5/7--7-5--5/7--7-5/8-8-7-7/-|
C|-5/7--7-5--5/7--7-5--5/7--7-5/8-8-7-7/-| x2
G|-3/5--5-3--3/5--5-3--3/5--5-3/6-6-5-5/-|
D|---------------------------------------|

Build Up
PM------------------------
D|-------------------------------|
A|-------------------------------|
F|-------------------------------|
C|-5-5-5-5-5-5-5-5-5-5-5-5--8--8-|
G|-5-5-5-5-5-5-5-5-5-5-5-5--8--8-|
D|-3-3-3-3-3-3-3-3-3-3-3-3--6--6-|

Chorus

D|---------------------------------|
A|---------------------------------|
F|-----5-5-------------5-5---------|
C|-7-7-5-5-5-5-8-8-7-7-5-5-5-5-8-8-| x2
G|-7-7-3-3-5-5-8-8-7-7-3-3-5-5-8-8-|
C|-5-5-----3-3-6-6-5-5-----3-3-6-6-|

Then

D|----------------------------------------|
A|----------------------------------------|
F|-----5-5--------------------------------|
C|-7-7-5-5-5-5-8-8-3-3-3-3-3-3-3-3-2~~~~~~|
G|-7-7-3-3-5-5-8-8-3-3-3-3-3-3-3-3-2~~~~~~|
C|-5-5-----3-3-6-6-1-1-1-1-1-1-1-1-0~~~~~~|

For the chorus, the bass plays

F|---------------------------------|
C|---------------------------------|
G|-----3-3-----8-8-----3-3-----8-8-|
C|-5-5-----3-3-----5-5-----3-3-----|
[ Tab from: http://www.guitartabs.cc/tabs/n/nine_black_alps/get_your_guns_tab.html ]
F|----------------------------------------|
C|----------------------------------------|
G|-----3-3-----8-8------------------------|
C|-5-5-----3-3-----1-1-1-1-1-1-1-1-0~~~~~~|

Breakdown

D|-----------------------------------|
A|-----------------------------------|
F|-7-7-5/7-5/7-7bu(7)(7)(8)(8)(9)(9)-|
C|-7-7-5/7-5/7-----------------------|
G|-5-5-3/5-3/5-5bu(5)(5)(6)(6)(6)(7)-|
D|-----------------------------------|

D|-----------------------------------|
A|-----------------------------------|
F|-------------5bu(5)(5)(6)(6)(7)(7)-|
C|-7-7-5/7-5/7-----------------------|
G|-7-7-5/7-5/7-3bu(3)(3)(4)(4)(4)(5)-|
D|-5-5-3/5-3/5-----------------------|

D|-----------------------------------|
A|-----------------------------------|
F|-7-7-5/7-5/7-7bu(7)(7)(8)(8)(9)(9)-|
C|-7-7-5/7-5/7-----------------------|
G|-5-5-3/5-3/5-5bu(5)(5)(6)(6)(6)(7)-|
D|-----------------------------------|

D|--------------------------------------|
A|--------------------------------------|
F|--------------------------------------|
C|-7-7-5/7\5-5~~5-5-5-7-7-5/7\5-3~~~~~~~|
G|-7-7-5/7\5-5~~5-5-5-7-7-5/7\5-3~~~~~~~|
D|-5-5-3/5\3-3~~3-3-3-5-5-3/5\3-1~~~~~~~|

Middle Section
                                   _ _ _ _ _ _ _ _
D|---------------------------------|              |
A|---------------------------------|              |
F|---------------------------------|              |
C|-7-7-7-7-7-7-7-7-7-7-7-7-7-7-7-7-|              |
G|-7-7-7-7-7-7-7-7-7-7-7-7-7-7-7-7-|              |
D|-5-5-5-5-5-5-5-5-5-5-5-5-5-5-5-5-|              | Play this whole
                                                  | sequence 4 times 
D|---------------------------------------|        | 
A|---------------------------------------|        |
F|-5--7-5-7bu8bd7-7-5--5-7-5-7bu8bd7-7-5-|        |
C|-5--7-5-7bu8bd7-7-5--5-7-5-7bu8bd7-7-5-|        |
G|---------------------------------------|        |
D|---------------------------------------|        |
                                     _ _ _ _ _ _ _|
Pre Chorus

D|---------------------------------------|
A|---------------------------------------|
F|-5/7--7-5--5/7--7-5--5/7--7-5/8-8-7-7/-|
C|-5/7--7-5--5/7--7-5--5/7--7-5/8-8-7-7/-| x2
G|-3/5--5-3--3/5--5-3--3/5--5-3/6-6-5-5/-|
D|---------------------------------------|

Build Up
PM------------------------
D|-------------------------------|
A|-------------------------------|
F|-------------------------------|
C|-5-5-5-5-5-5-5-5-5-5-5-5--8--8-|
G|-5-5-5-5-5-5-5-5-5-5-5-5--8--8-|
D|-3-3-3-3-3-3-3-3-3-3-3-3--6--6-|

Chorus

D|---------------------------------|
A|---------------------------------|
F|-----5-5-------------5-5---------|
C|-7-7-5-5-5-5-8-8-7-7-5-5-5-5-8-8-| x2
G|-7-7-3-3-5-5-8-8-7-7-3-3-5-5-8-8-|
C|-5-5-----3-3-6-6-5-5-----3-3-6-6-|

Then

D|-------------------------------------------------|
A|-------------------------------------------------|
F|-----5-5-----------------------------------------|
C|-7-7-5-5-5-5-8-8-3-3-3-3-3-3-3-3-2-2-2-2-2-2-2-2-|
G|-7-7-3-3-5-5-8-8-3-3-3-3-3-3-3-3-2-2-2-2-2-2-2-2-|
C|-5-5-----3-3-6-6-1-1-1-1-1-1-1-1-0-0-0-0-0-0-0-0-|

For the chorus, the bass plays

F|---------------------------------|
C|---------------------------------|
G|-----3-3-----8-8-----3-3-----8-8-|
C|-5-5-----3-3-----5-5-----3-3-----|

F|----------------------------------------|
C|----------------------------------------|
G|-----3-3-----8-8------------------------|
C|-5-5-----3-3-----1-1-1-1-1-1-1-1-0~~~~~~|

Outro

D|---------------------------------|
A|---------------------------------|
F|-----5-5-------------5-5---------|
C|-7-7-5-5-5-5-5-5-7-7-5-5-5-5-5-5-| x3
G|-7-7-3-3-5-5-5-5-7-7-3-3-5-5-5-5-|
C|-5-5-----3-3-3-3-5-5-----3-3-3-3-|

Then

D|------------------------|
A|------------------------|
F|------------------------|
C|-3-3-3-3-3-3-3-3-2~~~~~~|
G|-3-3-3-3-3-3-3-3-2~~~~~~|
C|-1-1-1-1-1-1-1-1-0~~~~~~|

That is the whole tab. Please rate, comment and if necessary, correct. Thanks. Enjoy.

Lyrics:

Two summers with the light on
Too tired to fall asleep
Too dumb to keep your clothes on
Too cenacle to speak

Is there any wonder
Why I bother 
Hanging round
To take the pain
Is there any wonder
Why I bother
Hanging round for you
To feel the same  

'Cause in my world, I can wait
Turn you round to your face
For all the time, for the place
To do you wrong, so get your guns

Her picture in your pocket
Her memory at your door
Too tired to unlock it
Too scared to ask for more
Is there any wonder
Why I bother 
Hanging round
To take the pain
Is there any wonder
Why I bother
Coming down for you
To fix the plane

'Cause in my world, I can wait
Turn you round to your face
For all the time, for the place
To do you wrong, so get your guns

Yeah, Ahhhh, Hey, Yeah

Is there any wonder
Why I bother 
Hanging round
To take the pain
Is there any wonder
Why I bother
Hanging round for you
To feel the same  

'Cause in my world, I can wait
Turn you round to your face
For all the time, for the place
To do you wrong, so get your guns

So get your gun
So get your gun
So get your guns
Comments