Nine Black Alps - Cosmopolitan Chords & Tabs

 

Cosmopolitan Chords & Tabs

Nine Black Alps Chords & Tabs

Version: 1 Type: Tab 0 ratings
1 star 2 stars 3 stars 4 stars 5 stars
comments

Cosmopolitan Tab

   
Artist: Nine Black Alps
Song: Cosmopolitan
Album: Everything Is
Tuning: Down A Whole Step- D G C F A D
Tabbed By James Morris
Date: 28.06.2005

Intro
Guitar 1
D|---------------------------------------------|
A|---------------------------------------------|
F|---------------------------------------------|
C|-9-9\-2-2/-5-5\-2-2/-9-9\-2-2/-5-5\-2-2////9-|
G|---------------------------------------------|
D|---------------------------------------------|

Build Up

Guitar 1
D|-----------------------------------------------------------------|
A|-----------------------------------------------------------------|
F|-----------------------------------------------------------------|
C|-----9-9-----2-2-----5-5-----2-2-----9-9-----2-2-----5-5-----2-2-|
G|-0-0-----0-0-----0-0-----0-0-----0-0-----0-0-----0-0-----0-0-----|
D|-----------------------------------------------------------------|

Guitar 2
D|-5~~~~~~~~~~~~~~~~~5--8~~~~~~~~~~~~~~~~~~|
A|-5~~~~~~~~~~~~~~~~~5--8~~~~~~~~~~~~~~~~~~|
F|-6~~~~~~~~~~~~~~~~~6--9~~~~~~~~~~~~~~~~~~|
C|-7~~~~~~~~~~~~~~~~~7-10~~~~~~~~~~~~~~~~~~|
G|-7~~~~~~~~~~~~~~~~~7-10~~~~~~~~~~~~~~~~~~|
D|-5~~~~~~~~~~~~~~~~~5--8~~~~~~~~~~~~~~~~~~|

Main Riff

Guitar 1
D|----------------------------------|
A|1212/5-5/8-8/5-5/1212/5-5/8-8/5-5-|
F|-x-x/x-x/x-x/x-x/-x-x/x-x/x-x/x-x-|
C|-9-9/2-2/5-5/2-2/-9-9/2-2/5-5/2-2-|
G|----------------------------------|
D|----------------------------------|

Guitar 2

D|---------------------------------|
A|-8-8-8-8-8-8-8-8-8-8-8-8-8-8~~~~-|
F|-9-9-9-9-9-9-9-9-9-9-9-9-9-9-9-7-|
C|-9-9-9-9-9-9-9-9-9-9-9-9-9-9~~~~-|
G|-7-7-7-7-7-7-7-7-7-7-7-7-7-7~~~~-|
D|-0-0-0-0-0-0-0-0-0-0-0-0-0-0~~~~-|

Verse

Guitar 1
D|-5-5-5-5-5-5-5-5-3-3-3-3-3-3-3-3-|
A|-5-5-5-5-5-5-5-5-5-5-5-5-5-5-5-5-|
F|-6-6-6-6-6-6-6-6-5-5-5-5-5-5-5-5-|
C|-7-7-7-7-7-7-7-7-5-5-5-5-5-5-5-5-|
G|-7-7-7-7-7-7-7-7-3-3-3-3-3-3-3-3-|
D|-5-5-5-5-5-5-5-5-----------------|

Guitar 2
D|---------------------------------|
A|---------------------------------|
F|-6~~~~~~~~~~~~~6/9----------9/11-|
C|---------------------------------|
G|---------------------------------|
D|---------------------------------|

Guitar 1
D|-5-5-5-5-5-5-5-5-3-3-3-3-3-3-3-3-|
A|-5-5-5-5-5-5-5-5-5-5-5-5-5-5-5-5-|
F|-6-6-6-6-6-6-6-6-5-5-5-5-5-5-5-5-|
C|-7-7-7-7-7-7-7-7-5-5-5-5-5-5-5-5-|
G|-7-7-7-7-7-7-7-7-3-3-3-3-3-3-3-3-|
D|-5-5-5-5-5-5-5-5-----------------|

Bridge
Guitar 2
D|---------------------------------|
A|---------------------------------|
F|-6~~~~~~~~~~~~~6/9----------9/\/-|
C|---------------------------------|
G|---------------------------------|
D|---------------------------------|

Guitar 1
D|----------------------------------|
A|1212/5-5/8-8/5-5/1212/5-5/8-8/5-5-|
F|-x-x/x-x/x-x/x-x/-x-x/x-x/x-x/x-x-|
C|-9-9/2-2/5-5/2-2/-9-9/2-2/5-5/2-2-|
G|----------------------------------|
D|----------------------------------|

Guitar 2

D|---------------------------------|
A|-8-8-8-8-8-8-8-8-8-8-8-8-8-8-8-8-|
F|-9-9-9-9-9-9-9-9-9-9-9-9-9-9-9-9-|
C|-9-9-9-9-9-9-9-9-9-9-9-9-9-9-9-9-|
G|-7-7-7-7-7-7-7-7-7-7-7-7-7-7-7-7-|
D|-0-0-0-0-0-0-0-0-0-0-0-0-0-0-0-0-|

Bass

F|---------------------------------|
C|---------------------------------|
G|-7-7-7-7-7-7-7-7-7-7-7-7-7-0-5-6-|
D|---------------------------------|

Guitar 1
D|----------------------------------|
A|1212/5-5/8-8/5-5/1212/5-5/8-8/5-5-|
F|-x-x/x-x/x-x/x-x/-x-x/x-x/x-x/x-x-|
C|-9-9/2-2/5-5/2-2/-9-9/2-2/5-5/2-2-|
G|----------------------------------|
D|----------------------------------|

Guitar 2

D|---------------------------------|
A|-8-8-8-8-8-8-8-8-8-8-8-8-8-8-8-8-|
F|-9-9-9-9-9-9-9-9-9-9-9-9-9-9-9-9-|
C|-9-9-9-9-9-9-9-9-9-9-9-9-9-9-9-9-|
G|-7-7-7-7-7-7-7-7-7-7-7-7-7-7-7-7-|
D|-0-0-0-0-0-0-0-0-0-0-0-0-0-0-0-0-|

Bass

F|---------------------------------|
C|---------------------------------|
G|-7-7-7-7-7-7-7-7-7-7-7-7-7-0-3-1-|
D|---------------------------------|

Verse
Guitar 1
D|-5-5-5-5-5-5-5-5-3-3-3-3-3-3-3-3-|
A|-5-5-5-5-5-5-5-5-5-5-5-5-5-5-5-5-|
F|-6-6-6-6-6-6-6-6-5-5-5-5-5-5-5-5-|
C|-7-7-7-7-7-7-7-7-5-5-5-5-5-5-5-5-|
G|-7-7-7-7-7-7-7-7-3-3-3-3-3-3-3-3-|
D|-5-5-5-5-5-5-5-5-----------------|

Guitar 2
D|---------------------------------|
A|---------------------------------|
F|-6~~~~~~~~~~~~~6/9----------9/11-|
C|---------------------------------|
G|---------------------------------|
D|---------------------------------|

Guitar 1
D|-5-5-5-5-5-5-5-5-3-3-3-3-3-3-3-3-|
A|-5-5-5-5-5-5-5-5-5-5-5-5-5-5-5-5-|
F|-6-6-6-6-6-6-6-6-5-5-5-5-5-5-5-5-|
C|-7-7-7-7-7-7-7-7-5-5-5-5-5-5-5-5-|
G|-7-7-7-7-7-7-7-7-3-3-3-3-3-3-3-3-|
D|-5-5-5-5-5-5-5-5-----------------|

Guitar 2
D|---------------------------------|
A|---------------------------------|
F|-6~~~~~~~~~~~~~6/9----------9/\/-|
C|---------------------------------|
G|---------------------------------|
D|---------------------------------|

Pre Chorus
Both guitars
D|-----------------x-x-x-x-x-x-x-x-|
A|-9--9-9-/1010-9--x-x-x-x-x-x-x-x-|
F|-9--9-9-/1010-9--x-x-x-x-x-x-x-x-| 
C|-9--9-9-/1010-9--x-x-x-x-x-x-x-x-| x3
G|-7--7-7-/-8-8-7--x-x-x-x-x-x-x-x-|
D|-----------------x-x-x-x-x-x-x-x-|

D|---------------------------------|
A|-9--9-9-/1010-9--9-9-9-9-9-9-9-9-|
F|-9--9-9-/1010-9--9-9-9-9-9-9-9-9-| 
C|-9--9-9-/1010-9--9-9-9-9-9-9-9-9-|
G|-7--7-7-/-8-8-7--7-7-7-7-7-7-7-7-|
D|---------------------------------|

Chorus
Guitars 1+2
D|-----------------------------------------------------------------|
A|-8-8-8-8-8-8-8-8-8-8-8-8-8-8-8-8-5-5-5-5-5-5-5-5-5-5-5-5-5-5-5-5-|
F|-9-9-9-9-9-9-9-9-9-9-9-9-9-9-9-9-6-6-6-6-6-6-6-6-6-6-6-6-6-6-6-6-|
C|10101010101010101010101010101010-7-7-7-7-7-7-7-7-7-7-7-7-7-7-7-7-| 
G|10101010101010101010101010101010-7-7-7-7-7-7-7-7-7-7-7-7-7-7-7-7-|
D|-8-8-8-8-8-8-8-8-8-8-8-8-8-8-8-8-5-5-5-5-5-5-5-5-5-5-5-5-5-5-5-5-|

D|-----------------------------------------------------------------|
A|-8-8-8-8-8-8-8-8-8-8-8-8-8-8-8-8-5-5-5-5-5-5-5-5-6-6-6-6-6-6-6-6-|
F|-9-9-9-9-9-9-9-9-9-9-9-9-9-9-9-9-6-6-6-6-6-6-6-6-7-7-7-7-7-7-7-7-|
C|10101010101010101010101010101010-7-7-7-7-7-7-7-7-8-8-8-8-8-8-8-8-| 
G|10101010101010101010101010101010-7-7-7-7-7-7-7-7-8-8-8-8-8-8-8-8-|
D|-8-8-8-8-8-8-8-8-8-8-8-8-8-8-8-8-5-5-5-5-5-5-5-5-6-6-6-6-6-6-6-6-|

Post chorus
Guitar 1
D|----------------------------------|
A|1212/5-5/8-8/5-5/1212/5-5/8-8/5-5-|
F|-x-x/x-x/x-x/x-x/-x-x/x-x/x-x/x-x-|
C|-9-9/2-2/5-5/2-2/-9-9/2-2/5-5/2-2-|
G|----------------------------------|
D|----------------------------------|

Guitar 2

D|---------------------------------|
A|-8-8-8-8-8-8-8-8-8-8-8-8-8-8-8-8-|
F|-9-9-9-9-9-9-9-9-9-9-9-9-9-9-9-9-|
C|-9-9-9-9-9-9-9-9-9-9-9-9-9-9-9-9-|
G|-7-7-7-7-7-7-7-7-7-7-7-7-7-7-7-7-|
D|-0-0-0-0-0-0-0-0-0-0-0-0-0-0-0-0-|

Bass
[ Tab from: http://www.guitartabs.cc/tabs/n/nine_black_alps/cosmopolitan_tab.html ]
F|---------------------------------|
C|---------------------------------|
G|-7-7-7-7-7-7-7-7-7-7-7-7-7-0-5-6-|
D|---------------------------------|

Guitar 1
D|----------------------------------|
A|1212/5-5/8-8/5-5/1212/5-5/8-8/5-5-|
F|-x-x/x-x/x-x/x-x/-x-x/x-x/x-x/x-x-|
C|-9-9/2-2/5-5/2-2/-9-9/2-2/5-5/2-2-|
G|----------------------------------|
D|----------------------------------|

Guitar 2

D|---------------------------------|
A|-8-8-8-8-8-8-8-8-8-8-8-8-8-8-8-8-|
F|-9-9-9-9-9-9-9-9-9-9-9-9-9-9-9-9-|
C|-9-9-9-9-9-9-9-9-9-9-9-9-9-9-9-9-|
G|-7-7-7-7-7-7-7-7-7-7-7-7-7-7-7-7-|
D|-0-0-0-0-0-0-0-0-0-0-0-0-0-0-0-0-|

Bass

F|---------------------------------|
C|---------------------------------|
G|-7-7-7-7-7-7-7-7-7-7-7-7-7-0-3-1-|
D|---------------------------------|

Verse
Guitar 1
D|-5-5-5-5-5-5-5-5-3-3-3-3-3-3-3-3-|
A|-5-5-5-5-5-5-5-5-5-5-5-5-5-5-5-5-|
F|-6-6-6-6-6-6-6-6-5-5-5-5-5-5-5-5-|
C|-7-7-7-7-7-7-7-7-5-5-5-5-5-5-5-5-|
G|-7-7-7-7-7-7-7-7-3-3-3-3-3-3-3-3-|
D|-5-5-5-5-5-5-5-5-----------------|

Guitar 2
D|---------------------------------|
A|---------------------------------|
F|-6~~~~~~~~~~~~~6/9----------9/11-|
C|---------------------------------|
G|---------------------------------|
D|---------------------------------|

Guitar 1
D|-5-5-5-5-5-5-5-5-3-3-3-3-3-3-3-3-|
A|-5-5-5-5-5-5-5-5-5-5-5-5-5-5-5-5-|
F|-6-6-6-6-6-6-6-6-5-5-5-5-5-5-5-5-|
C|-7-7-7-7-7-7-7-7-5-5-5-5-5-5-5-5-|
G|-7-7-7-7-7-7-7-7-3-3-3-3-3-3-3-3-|
D|-5-5-5-5-5-5-5-5-----------------|

Guitar 2
D|---------------------------------|
A|---------------------------------|
F|-6~~~~~~~~~~~~~6/9----------9/\/-|
C|---------------------------------|
G|---------------------------------|
D|---------------------------------|

Pre Chorus
Both guitars
D|-----------------x-x-x-x-x-x-x-x-|
A|-9--9-9-/1010-9--x-x-x-x-x-x-x-x-|
F|-9--9-9-/1010-9--x-x-x-x-x-x-x-x-| 
C|-9--9-9-/1010-9--x-x-x-x-x-x-x-x-| x3
G|-7--7-7-/-8-8-7--x-x-x-x-x-x-x-x-|
D|-----------------x-x-x-x-x-x-x-x-|

D|---------------------------------|
A|-9--9-9-/1010-9--9-9-9-9-9-9-9-9-|
F|-9--9-9-/1010-9--9-9-9-9-9-9-9-9-| 
C|-9--9-9-/1010-9--9-9-9-9-9-9-9-9-|
G|-7--7-7-/-8-8-7--7-7-7-7-7-7-7-7-|
D|---------------------------------|

Chorus
Guitars 1+2
D|-----------------------------------------------------------------|
A|-8-8-8-8-8-8-8-8-8-8-8-8-8-8-8-8-5-5-5-5-5-5-5-5-5-5-5-5-5-5-5-5-|
F|-9-9-9-9-9-9-9-9-9-9-9-9-9-9-9-9-6-6-6-6-6-6-6-6-6-6-6-6-6-6-6-6-|
C|10101010101010101010101010101010-7-7-7-7-7-7-7-7-7-7-7-7-7-7-7-7-| 
G|10101010101010101010101010101010-7-7-7-7-7-7-7-7-7-7-7-7-7-7-7-7-|
D|-8-8-8-8-8-8-8-8-8-8-8-8-8-8-8-8-5-5-5-5-5-5-5-5-5-5-5-5-5-5-5-5-|

D|-----------------------------------------------------------------|
A|-8-8-8-8-8-8-8-8-8-8-8-8-8-8-8-8-5-5-5-5-5-5-5-5-6-6-6-6-6-6-6-6-|
F|-9-9-9-9-9-9-9-9-9-9-9-9-9-9-9-9-6-6-6-6-6-6-6-6-7-7-7-7-7-7-7-7-|
C|10101010101010101010101010101010-7-7-7-7-7-7-7-7-8-8-8-8-8-8-8-8-| 
G|10101010101010101010101010101010-7-7-7-7-7-7-7-7-8-8-8-8-8-8-8-8-|
D|-8-8-8-8-8-8-8-8-8-8-8-8-8-8-8-8-5-5-5-5-5-5-5-5-6-6-6-6-6-6-6-6-|

Interlude
Guitar 1
D|-----------------------------------------|
A|-----------------------------------------|
F|-----------------------------------------|
C|-9-9\-2-2/-5-5\-2-2/-9-9\-2-2/-5-5\-2-2/-|
G|-----------------------------------------|
D|-----------------------------------------|

Guitar 2

D|-----------------------------------------|
A|-----------------------------------------|
F|-----------------------------------------|
C|-----------------------------------------|
G|-7-7-7-7-7-7-7-7-7-7-7-7-7-7-7-7-7-7-7-7-|
D|-----------------------------------------|

Guitar 1
D|-----------------------------------------|
A|-----------------------------------------|
F|-----------------------------------------|
C|-9-9\-2-2/-5-5\-2-2/-9-9\-2-2/-5-5\-2-2/-|
G|-----------------------------------------|
D|-----------------------------------------|

Guitar 2
D|-----------------------------------------|
A|-----------------------------------------|
F|-----------------------------------------| tremolo picking whilst
C|-9//////////////////////////////////////-| sliding finger up neck
G|-----------------------------------------|
D|-----------------------------------------|

Chorus
Guitars 1+2
D|-----------------------------------------------------------------|
A|-8-8-8-8-8-8-8-8-8-8-8-8-8-8-8-8-5-5-5-5-5-5-5-5-5-5-5-5-5-5-5-5-|
F|-9-9-9-9-9-9-9-9-9-9-9-9-9-9-9-9-6-6-6-6-6-6-6-6-6-6-6-6-6-6-6-6-|
C|10101010101010101010101010101010-7-7-7-7-7-7-7-7-7-7-7-7-7-7-7-7-| 
G|10101010101010101010101010101010-7-7-7-7-7-7-7-7-7-7-7-7-7-7-7-7-|
D|-8-8-8-8-8-8-8-8-8-8-8-8-8-8-8-8-5-5-5-5-5-5-5-5-5-5-5-5-5-5-5-5-|

D|-----------------------------------------------------------------|
A|-8-8-8-8-8-8-8-8-8-8-8-8-8-8-8-8-5-5-5-5-5-5-5-5-5-5-5-5-5-5-5-5-|
F|-9-9-9-9-9-9-9-9-9-9-9-9-9-9-9-9-6-6-6-6-6-6-6-6-6-6-6-6-6-6-6-6-|
C|10101010101010101010101010101010-7-7-7-7-7-7-7-7-7-7-7-7-7-7-7-7-| 
G|10101010101010101010101010101010-7-7-7-7-7-7-7-7-7-7-7-7-7-7-7-7-|
D|-8-8-8-8-8-8-8-8-8-8-8-8-8-8-8-8-5-5-5-5-5-5-5-5-5-5-5-5-5-5-5-5-|

Guitar 1
D|-----------------------------------------------------------------|
A|-8-8-8-8-8-8-8-8-8-8-8-8-8-8-8-8-5-5-5-5-5-5-5-5-5-5-5-5-5-5-5-5-|
F|-9-9-9-9-9-9-9-9-9-9-9-9-9-9-9-9-6-6-6-6-6-6-6-6-6-6-6-6-6-6-6-6-|
C|10101010101010101010101010101010-7-7-7-7-7-7-7-7-7-7-7-7-7-7-7-7-| 
G|10101010101010101010101010101010-7-7-7-7-7-7-7-7-7-7-7-7-7-7-7-7-|
D|-8-8-8-8-8-8-8-8-8-8-8-8-8-8-8-8-5-5-5-5-5-5-5-5-5-5-5-5-5-5-5-5-|

Guitar 2

D|-----------------------------------------------------------------|
A|-----------------------------------------------------------------|
F|-9bubdbubdbubdbubdbubdbubdbubdbu-6bubdbubdbubdbubdbubdbubdbubdbu-|
C|-----------------------------------------------------------------|
G|-----------------------------------------------------------------|
D|-----------------------------------------------------------------|

Guitar 1
D|-----------------------------------------------------------------|
A|-8-8-8-8-8-8-8-8-8-8-8-8-8-8-8-8-5-5-5-5-5-5-5-5-6-6-6-6-6-6-6-6-|
F|-9-9-9-9-9-9-9-9-9-9-9-9-9-9-9-9-6-6-6-6-6-6-6-6-7-7-7-7-7-7-7-7-|
C|10101010101010101010101010101010-7-7-7-7-7-7-7-7-8-8-8-8-8-8-8-8-| 
G|10101010101010101010101010101010-7-7-7-7-7-7-7-7-8-8-8-8-8-8-8-8-|
D|-8-8-8-8-8-8-8-8-8-8-8-8-8-8-8-8-5-5-5-5-5-5-5-5-6-6-6-6-6-6-6-6-|

Guitar 2
D|-----------------------------------------------------------------|
A|-----------------------------------------------------------------|
F|-9bubdbubdbubdbubdbubdbubdbubdbu-6bubdbubdbubdbubdbubdbubdbubdbu-|
C|-----------------------------------------------------------------|
G|-----------------------------------------------------------------|
D|-----------------------------------------------------------------|

End On
Guitar 1
D|-0~~~~~~~|
A|-0~~~~~~~|
F|-1~~~~~~~|
C|-2~~~~~~~|
G|-2~~~~~~~|
D|-0~~~~~~~|

Guitar 2
D|-7~~~~~~~|
A|-9~~~~~~~|
F|-9~~~~~~~|
C|-9~~~~~~~|
G|-7~~~~~~~|
D|-0~~~~~~~|
Comments