Nina Nastasia - Stormy Weather Chords & Tabs

 

Stormy Weather Chords & Tabs

Nina Nastasia Chords & Tabs

Version: 1 Type: Tab

Stormy Weather Tab

   
-------------------------------------------------------------------------------
			     Stormy Weather - Nina Nastasia
-------------------------------------------------------------------------------
Tabbed by: Ben Hurst
Email: BHurst8@gmail.com

From the album "Dogs"

Tuning: Standard

 Verse    
  "She comes running in..."                                __________________
  G#                 G               x2 F                 |1.,2. G                                     
e|------4-----4-----|-----3-----3------|------1-----1-----|-----3-----3------|
B|o-------4-----4---|-------3-----3---o|o-------1-----1---|-------0-----0---o|
G|----5-----5-----5-|---4-----4-----4--|----2-----2-----2-|---0-----0-----0--|
D|--6---------------|-5----------------|--3---------------|------------------|
A|o-----------------|-----------------o|o-----------------|-----------------o|
E|------------------|------------------|------------------|-3----------------|
  _________________
 |3. G
e|-----3-----3-----|----3-----3-----|
B|-------0-----0---|------0-----0---|
G|---0-----------0-|---0----------0-|
D|-----------------|----------------|
A|-----------------|----------------|
E|-3---------------|-3--------------|

 Chorus
  "I can't be on best behavior..."
  Am                C                 G                  E               x2
e|------0-----0-----|-----0-----0-----|-----------------|------------------|
B|o-------1-----1---|-------1-----1---|-----0-----0-----|-----0-----0-----o|
G|-----2----2-----2-|---0-----0-----0-|-------0-----0---|-------1-----1----|
D|------------------|-----------------|---0-----0-----0-|---2-----2-----2--|
A|o-0---------------|-3---------------|-----------------|-----------------o|
E|------------------|-----------------|-3---------------|-0----------------|
[ Tab from: http://www.guitartabs.cc/tabs/n/nina_nastasia/stormy_weather_tab.html ]
 Bridge
  "She looks around for me..."
  Dm-ish              x4 C                 G                 Am            x2        
e|---------10-----10----|-----0-----0-----|-----------------|------0-----0------|
B|o------0------0----0-o|-------1-----1---|-----0-----0-----|o-------1-----1---o|
G|----10----------------|---0-----0-----0-|-------0-----0---|----2-----2-----2--|
D|--0-------------------|-----------------|---0-----0-----0-|-------------------|
A|o--------------------o|-3---------------|-----------------|o-0---------------o|
E|----------------------|-----------------|-3---------------|-------------------|

  This entire pattern repeats, then

                   x2
e|------0-----0------|-----------------|------------------|
B|o-------1-----1---o|-----0-----0-----|------------------|
G|----0-----0-----0--|-------0-----0---|------------------| (Back to Verse)
D|-------------------|---0-----0-----0-|------------------|
A|o-3---------------o|-----------------|------------------|
E|-------------------|-3---------------|-3(hold)----------|

 Outro

  Dm-ish                        
e|---------10-----10----|
B|o------0------0----0-o|
G|----10----------------| (Repeat and Fade)
D|--0-------------------|
A|o--------------------o|
E|----------------------|

Lyrics and Sequence:

Verse
She comes running in
"We're all on fire"
She says so hysterically
I'm in the shower
She says, "save the water"

Chorus
I can't be on best behavior
I'm not afraid of stormy weather

Verse
Sunday afternoon
We'll drive for hours
After church with father
While she photographs me
In a bed of flowers

Chorus(lyrics same)

Bridge
She looks around for me
Don't you know I'm always gonna be here
She doesn't wanna leave
I'm afraid of stormy, stormy weather
There's nothing i can do, there's nothing you won't do

Verse
She lies on her back
Let it go, she ate him
She looks like disaster
There's no one to help her
No machine can keep her

Chorus

Bridge(lyrics same)

Outro


| /  slide up
| \  slide down
| h  hammer-on
| p  pull-off
| ~  vibrato
| +  harmonic
| x  Mute note
===============================================================================