Nina - Steep Chords & Tabs

 

Steep Chords & Tabs

Nina Chords & Tabs

Version: 3 Type: Tab 0 ratings
1 star 2 stars 3 stars 4 stars 5 stars
comments

Steep Tab

   
Song Title      : Steep
Band/Artist     : Nina
Tabbed by       : Angelino Cayabyab Estandian Jr. (a.k.a. ace)
Email           : acetangent@yahoo.com
contact no      : 09163981421
Date            : September 21, 2005

guys! ang saya saya kasi eto na yung totoong tab ng steep by nina...
acurate po ito...99.999% acurate!...
try nyo guys...
this tab pala is for ms. ROSE ANN CASTILLO....
eto na yung fave mo...sana magustuhan mo...pinaghirapan ko yan!!!
at sa lahat din po ng mga kaibigan ko po jan sa saint louis university,
baguio city....
pati na rin po kay michelle na ngttxt sakin na i-tab ko daw po ito....
heto na!!...sana po magustuhan nyong lahat...


Tuning: EADGBe (standard)

notes:
  1. piano po yung ginamit pero i was able to transcribe it in a guitar...
  2. sabayan nyo po ung cd para mas madaling guitarahin...
  3. capitalized po yung mga word kung saan sasabay yung nota...
  4. dun po sa chorus and refrain, lower octaves na po ginamit kaya 
     hindi ko na po ti-nab kasi kung itatab ko pa po sa guitara, 
     bass s3ngs na po ang tatamaan....pero wag po kayo mag-alala 
     kasi tama po yung mga chords...

intro:

e|--0-------------|------0--------------|
B|--------2-rest--|--2h3-------2-rest---|
G|------2---------|----------2----------|
D|----2-----------|--------2------------|
A|--0-------------|------0--------------|
E|----------------|---------------------|

e|--0-rest--|--5-rest--4rest-2-----0-rest---|
B|----------|--------------------3----------|
G|----------|------------------2------------|
D|----------|----------------0--------------|
A|--0-rest--|-------------------------------|
E|----------|-------------------------------|

e|-------0-rest--------|--0---0---2----------|
B|--------------0-rest-|---------------------|
G|--2h4----------------|-------------2-rest--|
D|---------------------|---------------------|
A|---------------------|---------------------|
E|-------4-rest--------|------2--------------|

e|-------------------|--------------|
B|-----3---2---------|-----0-rest---|
G|--4--------2-rest--|--------------|
D|-------4-----------|--2-----------|
A|-----2-------------|--------------|
E|-------------------|-----0-rest---|

verse:

e|-----------0---------------------------|
B|----------------2--------------2-------|
G|----2-----------------------2----------|
D|---------2----------------4------------|
A|----0-------------------4------0-------|
E|----------------2----------------------|
    SOFTLY      GENTLY           I   

e|-------------------2-------0---|
B|-------------------------3-----|
G|-----------------------2-------|
D|-------------------0-----------|
A|-------------------------------|
E|-------------------------------|
    will let you   DOWN
[ Tab from: http://www.guitartabs.cc/tabs/n/nina/steep_tab_ver_3.html ]
e|----0------------2---------------------------------0-----------|
B|------0----------------------------3---------------0------0----|
G|--2------------2----2--------------2----------------------1----|
D|-----------------------------------2---------------------------|
A|--------------------0------------------------------------------|
E|------4--------------------------------------------0-----------|
  coz   I   dont     LOVE   you     IN the same way NOW

e|---0-------------0--------------5-4---|
B|------2------2-3----2-----------------|
G|-2------------------2-----------------|
D|--------------------------------------|
A|------0-------------0-----------------|
E|--------------------------------------|
        I can        HOLD you

e|-----0--------5--4------2--------0----|
B|------------------------------3-------|
G|---------------------------2----------|
D|------------------------0-------------|
A|-----0--------------------------------|
E|--------------------------------------|
  but NOT with LO-VERS--ARMS

e|----0----------------------0--------------0------|
B|------0---------0------0---3--------------0------|
G|--2-------------2-------------------------1------|
D|---------------------------0---------------------|
A|----------------0--------------------------------|
E|------4-----------------------------------0------|
  coz  YOU are  MORE of  a  BRO-ther to me NOW

refrain:
             D           F#m            Bm          G-E
e|-----------2------------2--------------0----------3-0----|
B|-----------3-pluck------2-pluck--------3-pluck----3-0----|
G|-----------2------------2--------------4----------0-1----|
D|-----------0------------4--------------4----------0-2----|
A|------------------------4--------------2----------2-2----|
E|------------------------2-------------------------3-0----|
  i can     LIE next to  YOU but i cant LIE to     YOU

chorus:

e|----2-------------0----------------2------------0--------|
B|----3-pluck-------2-pluck----------3-pluck------2-pluck--|
G|----2-------------2----------------2------------2--------|
D|----0-------------2----------------0------------2--------|
A|------------------0-----------------------------0--------|
E|------------------------------------------------------|
  so WALK into the SUN and watch me RUN into the RAIN

e|------2----------------2--------0--------0--------0--------|
B|------3-pluck----------2-pluck--0-pluck--3-pluck--0-pluck--|
G|------2----------------2--------1--------4--------1--------|
D|------0----------------4--------2--------4--------2--------|
A|-----------------------4--------2--------2--------2--------|
E|-----------------------2--------0-----------------0--------|
  for YOU the future's EASY      SO dont WEEP for  ME its getting...steep

tapos ulitin nyo po ung intro ,varying it a bit....kayo na po bahala dun...
tapos ulitin nyo rin po ung pattern pra sa second stanza/verse.... 
+++++++++++++++++++++++++++++++++++++++++++++++++++++++++++++++++++++++++++++++++++++++
kung may tanong po kayo,txt nyo po
ako sa 09163981421 or ipadala nyo nlng po sa yahoo mail at acetangent@yahoo.com

pede din po yan sa frndster.
Comments