Nina - Loving You Chords & Tabs

 

Loving You Chords & Tabs

Nina Chords & Tabs

Version: 1 Type: Tab 0 ratings
1 star 2 stars 3 stars 4 stars 5 stars
comments

Loving You Tab

   
____________________________________________________________________________
***************************************************************************
Title: Loving You
Artist: Nina
Tabbed by: Reynaldo R. Ramos
e-mail: rey_rrr20@yahoo.com
Tuning: Standard Tuning
Date: August 3, 2004
____________________________________________________________________________
****************************************************************************

I dedicate this guitar tab to my special friend catcat kc pinilit nya akong
gawan ito ng tab para kantahin nya sakin(flattered) kaya kahit natagalan itong
natapos pulido naman at tlgang anghirap kapain ng chords....para narin sa mga
dating nagrequest sakin na itab ito ayan na sya sana mag enjoy kayo paki rate
na lang ha yung 5(joke!) kayo na ang bahala...


Intro: C#-G#-
       C#-G#-
       C#-G#-G#sus-F#-F#M7-F#-

    C#    G#                   C#     G#
e|------------------------------------------------|
B|--9-----4--------------------9------4-----------|
G|--10----5--------------------10-----5-----------|
D|--11----6--------------------11-----6-----------|
A|------------------------------------------------|
E|------------------------------------------------|
    C#    G#   G#sus     F#    F#M7            F#              
e|-----------------------------------1---------------|
B|--9-----4--------------2---------------------2-----|
G|--10----5-------6------3--------3------------3-----|
D|--11----6----6---------4-----4---------------4-----|
A|---------------------------------------------------|
E|---------------------------------------------------|

Verse 1:

      Its been quiet a while, its really kept me
    C#sus2              G#          F#M7
e|--4--------------------------------------4--------|
B|--4-------------------4-----------6--------6------|
G|--6-------------------5-----------6----6----------|
D|----------------------6-----------4---------------|
A|--4-----------------------------------------------|
E|----------------------4---------------------------|
  wanting you,You've got some style that so unique
    G#             F#                   Fm
e|----------------------------------------------8--------|
B|--4--------------------------9-------------6-----------|
G|--5------5-------6---------6---------------------------|
D|--6----6---6-----8-------8-----------------------------|
A|-----------------9-----9--------------8----------------|
E|-------------------------------------------------------|
 So Beautiful,         So warm, so deep
    F#                   G#
e|------------------------------------------------------|
B|------------------------------------------------------|
G|---------10------------------5------------------------|
D|-------8----8--------------------6--------------------|
A|--9-----------------------6---------------------------|
E|-----------------------4------------------------------|

[ Tab from: http://www.guitartabs.cc/tabs/n/nina/loving_you_tab.html ]
   Stay with me tonight   Let me know the kind of love
   C#sus2       G#        F#M7             G#
e|--------4----------------------4-----------------------|
B|-----4--------4---------6--------6-------4-------------|
G|---6----------5---------6----6-----------5------5------|
D|--------------6---------4----------------6----6---6----|
A|-4-----------------------------------------------------|
E|--------------4----------------------------------------|
   That will remain forever be     A dream of you Have made reality
   F#               Fm              F#             G# 
e|-------------------------------------------2----------------|
B|----------9------------------9----------2----------------4--|
G|-------6-----------------10----------3-----------------5----|
D|----8----------------10-----------4------------------6------|
A|-9----------------8--------------------------------6--------|
E|-------------------------------------------------4----------|
    C#sus2    F#             C#sus2    F#     C#    
e|--------4x-----------------------4x-------------------|
B|--------4x----2---2--------------4x----2------6-------|
G|------6-------3-----3---3------6-------3----6---------|
D|----6-------4---------4------6-------4----------------|
A|--4------------------------4----------------4---------|
E|------------------------------------------------------|
	
Chorus 1:
     Loving           you                     oohhh...
    F#M7               G#sus                   C# 
e|--------------------------------------------------------------|
B|----------11--------------------------------------------------|
G|-------10----10---------------6--------------------6--5-------|
D|----11----------11---------6-----6--------------6--------6----|
A|--9---------------------6-----------6--------4----------------|
E|---------------------4----------------------------------------|
Such an easy      thing  to  do
         B         C#        F#M7  
e|---------------------------------------------------|
B|-------4--------6------------------11--------------|
G|-------------4--------6---------10----10-----------|
D|----------4---------6--------11----------11--------|
A|-------2--------4----------9-----------------------|
E|---------------------------------------------------|
No you'll         never      know
    G#sus                     C#
e|-----------------------------------------------------|
B|-----------------------------------------------------|
G|-----------6----------------------6--5---------------|
D|--------6-----6----------------6-------6-------------|
A|-----6-----------6----------4------------------------|
E|--4--------------------------------------------------|
 Its driving me  crazy   Coz it grows    
    B            C#         F#M7 
e|-----------------------------------------------|
B|--4------------6------------------11-----------|
G|--------4-------------6--------10----10--------|
D|-----4-------------6--------11----------11-----|
A|--2------------4----------9--------------------|
E|-----------------------------------------------|
  And grows       But I won't let it stop 
    BM7                 Fm    
e|----------------------------------------------|
B|--------4---------------------9---------------|
G|------3---3----------------10---10------------|
D|----4-------2-----------10---------10---------|
A|--2-------------------8-----------------------|
E|----------------------------------------------|
 No I'm not giving up, Loving you  
    Bb                 FM7
e|----------------------------------------------------|
B|-----------6---------------6------------------6-----|
G|---------7---7-----------6-------6-11-------6-----6-|
D|------8--------8-------8-------8----------8-----8---|
A|----8----------------9-------9----------9-----------|
E|--6-------------------------------------------------|
oh Loving you           Just have    been too much
    C#/G#              F#           G#sus
e|----------------------2------------4---------|
B|----------6-----------2------------4---------|
G|--------6------6------3------------6---------|
D|------6----------6----4------------6---------|
A|----------------------4------------6---------|
E|--4-------------------2------------4---------|

    C#sus2    F#             C#sus2    F#     G#sus    
e|--------4x-----------------------4x---------4---------|
B|--------4x----2---2--------------4x----2----4---------|
G|------6-------3-----3---3------6-------3----6---------|
D|----6-------4---------4------6-------4------6---------|
A|--4------------------------4----------------6---------|
E|--------------------------------------------4---------|

Stanza 2: (Do Stanza 1 pattern)


 C#sus2            G#  
It's been quite a while
  F#M7           G#
I never felt so easily
   F#             Fm
I wonder how you broke my style
F#             G#
Close to me I need you now


 C#sus2        G#
Stay with me tonight
     F#M7           G#
It's got to be just too much of
      F#           Fm
That could remain forever be
   F#                 G#          C#-F#,C#-F#,C#
A dream that you had made reality


	
Chorus 2: (Repeat Chorus 1 except last part)

No I'm not giving up, Loving you  
    Bb                 FM7
e|----------------------------------------------------|
B|-----------6---------------6------------------6-----|
G|---------7---7-----------6-------6-11-------6-----6-|
D|------8--------8-------8-------8----------8-----8---|
A|----8----------------9-------9----------9-----------|
E|--6-------------------------------------------------|

oh Loving you     Loving you  Just have    been too much
    C#             F#           F#           G#     C#
e|-----------------2------------2------------4-------------|
B|--6--------------2------------2------------4------6------|
G|--6--------------3------------3------------5------6------|
D|--6--------------4------------4------------6------6------|
A|--4--------------4------------4------------6------4------|
E|-----------------2------------2------------4-------------|

Adlib: F#M7—-G#sus—-C#--B-C#- 
       F#M7—-G#sus—-C#--B-C#- 
       F#M7—-BM7--Fm—-Bb—-
       F#M7—-C#—F#-G#-
       F#M7—-C#—F#-G#-


Repeat Chorus 2x:

Outro:

Do it 4 times:

    C#sus2    F#             C#sus2    F#     G#sus    
e|--------4x-----------------------4x---------4---------|
B|--------4x----2---2--------------4x----2----4---------|
G|------6-------3-----3---3------6-------3----6---------|
D|----6-------4---------4------6-------4------6---------|
A|--4------------------------4----------------6---------|
E|--------------------------------------------4---------|
Comments