Nina - Love Moves In Mysterious Ways Chords & Tabs

 

Love Moves In Mysterious Ways Chords & Tabs

Nina Chords & Tabs

Version: 3 Type: Chords 0 ratings
1 star 2 stars 3 stars 4 stars 5 stars
comments

Love Moves In Mysterious Ways Chords

   
Title: Love Moves In Mysterious Ways
Singer: Nina
Tabbed By: P. Lawrence Caasi RN
E-Mail: www.greenstick_band@hotmail.com/09196208740

The other versions on this site were good, but I think this is the most accurate one!
(Medyo mahirap kapain kaya hindi masyadong perpekto)
Intro: 
	G	     C	     F		  C or Am		  F	G
e|-------------------------------------------------0---0-1-0---------|
B|---------0-1--3--3-1-0-----------------------1-3---3------1---0-0--|
G|----0------------------0--0--2-2----2-----------------------2------|
D|-----0-------------------------------3-----2-----------------------|
A|---2----------3--3-3------3--------2-----0---------0---------------|
E|--3--------------------------1-1--1-------------------------1---3--|

Verse 1: (Do Intro if you wish, basta wag nyo I-strum!)
G		C9				F
Who'd have thought this is how the pieces fit?
Am			   F			 G
You and I shouldn't even try making sense of it
G	C		    F
I forgot how we ever came this far
Am		   F		G			F
I believe we had reasons but I don't know what they are
C			G
So blame it on my heart

Chorus: (Lagyan nyo ng beat mga pre!)
C9    G	   F
Love moves in mysterious ways
G		    F
ItĄŻs always so surprising
G#			G
When love appears over the horizon
C9	  G		  F
I love you for the rest of my days
G			    F
But still, it's a mystery
E			   Am
How you ever came to me
		Dm		F-G			   Esus
Which only proves love moves in mysterious ways

[ Tab from: http://www.guitartabs.cc/tabs/n/nina/love_moves_in_mysterious_ways_crd_ver_3.html ]
Verse 2: ( Gawin nyo ulit yung INTRO para ayus!)
G	   C9				F
Heaven knows love is just a chance we take
Am				F		    G
We make plans but then love demands a leap of faith
G	      C9		F
So hold me close, never ever let me go
Am		     F
CozĄŻ even though we think we know  
G			F
Which way the river flows

C9 			  G
That's not the way love goes, no


Chorus: 
D    A	   G
Love moves in mysterious ways
A		    G
ItĄŻs always so surprising
Bb			A
When love appears over the horizon
D	  A		  G
I love you for the rest of my days
A			    G
But still, it's a mystery
FM			   Bm
How you ever came to me
		Em		G-A			   F#7
Which only proves love moves in mysterious ways


Solo: Sabayan nyo ng chords: (G-C9-F Am-F-G)

e|--------------------------------------------------------------------|
B|-------------------------------------5--5-6-5-----------------------|
G|--------4-5-5/7--7-5-4------------5-7--7-----5-2-2-2/4-4-4/7--------|
D|-----------------------5-5-5/7-7-----------------------------5-3-2--|
A|--5---------------------------------------------------------------3-|
E|-----3--------------------------------------------------------------|


Bridge: 
	  C	            Am			  Bb
Like the ticking of a clock two hearts beat as one
Am	  Dm		    Gm	          C	D
But I'll never understand the way it's done ohhhhh


Chorus 2: (Mas mataas na)
G	D	   C
Love moves in mysterious ways
Bm		    C
ItĄŻs always so surprising
Eb			D
When love appears over the horizon
G	   D		   C
I love you for the rest of my days
Bm				C
But still, it's a mystery
B			   Em
How you ever came to me
		 Am		C-D			  Esus
Which only proves love moves in mysterious ways
C9			D	  G
Love moves in mysterious waysĄŚ..

Repeat Intro for End


Guide:
G#- 466544		F#7- 233322			˘ž
C7- x32033		Esus- x22200		
Dm- x00231		Eb- 668886
Bb- 113331		FM- 244322
Comments