Nina - Constantly Chords & Tabs

 

Constantly Chords & Tabs

Nina Chords & Tabs

Version: 1 Type: Tab 0 ratings
1 star 2 stars 3 stars 4 stars 5 stars
comments

Constantly Tab

   
song: Constantly
artist: Nina
album: Nina:live!
tabbed by: Joshua A. Abella (Josh_TGP5@yahoo.com)

i've always liked this song, bago pa itong version ni Nina on her album Nina: Live!...So anyway, i dedi-
cate this tablature to all Nina fans, young and old, to all sentimental and soul junkies who are dyin' 
to learn this piece...and to the one who's constantly on my mind for the last four years, still thinkin' 
'bout you all this time, girl...anyway, alam kong kulang itong version ko ng symbols, so please email me 
for suggestions, comments and violent reactions...enjoy!


Gtr. 1, standard tuning

intro (fig 1 3x, fig 2)

FIG 1					                                         FIG 2 	
	F                        G				                  F	  Bb      Am7

---------1------1------------------------------------------------------------   --1--------1------0~ --
---------1------1----------------------3----------------3--------------------   --1--------1------2~ --
---------2------2----------------------0----------------0--------------------   --2--------3------0~ --
---------3------3------------------------------------------------------------   --3--------3------1~ --
----------------3----------------------2----------------2--------------------   -----------1------0~ --
---------1--------------------------3-------3------3-------------------------   --1--------------------
   5. no i don't want to start no trouble
      between you and i and your lover
      but i must tell you what i'm going through


Verse 1-4 Chords

FIG 3
   G			                                CM7                                Bb        F    
--------------------------------------------------------------------------------------------1--------1-
------0------0-------0--------3~ ------3------3---------3~ ------------3-----------3-------1--------1--
------0------0-------0--------0~ ------0------0---------5~ ------------5-----------5-------3--------2--
--------------------------------------------------------4~ ------------4-----------4-------3--------3--
------2------2-------2--------2~ ------2------2---- ----5~ ------------5-----------5-------1--------3--
------3------3-------3--------3~ ------3------3--------------------------------------------------------
   1. i       knew it was there    though i tried to hide it        but the feeling just kept on shining   
   through
     2. i've known you that long     so i try to deny it            but the feeling is much too much too 
   3.why    do i feel this way     when i know you have someone       that you're seeing each and every-
   day    
   4.  should i play this game of just being your friend when i know that's not where i want it to
 
[ Tab from: http://www.guitartabs.cc/tabs/n/nina/constantly_tab.html ]
      
          Em                              EbM7      
--------------------------------------------------------------------------------------------------
------8-----8-------------------8------8-------8------------------------8-------------------------
------9-----9-------------------9------7-------7------------------------7-------------------------
------9-----9-------------------9------8-------8------------------------8-------------------------
------------7----------------------------------6------------------------6-------------------------
------7-------------7-------7----------6---------------6-------6----------------------------------
strong                           could this be love                  deep down 
end                              could this be wrong          when the feeling's so 



FIG 4
	
              Am7                Bm7                        C9                     D7sus    
----------------------0--------------2-----------------------------------------3t---------3-------
---------------1---------------3----------------------------3~ ----------------1t---------1-------
---------------0---------------2----------------------------0~ ----------------2t---------2-------
---------------2---------------4----------------------------2~ -----------------------------------
---------------0---------------2----------------------------3~ ----------------0t---------0-------
--------------------------------------------------------------------------------------------------
            2. inside       tearing me apart              i feel it in my heart
            4. strong           
            5. everytime you walk by                      i see love        in your eyes...         

chorus (2x)

FIG 5
    
      CM7                                  Bm5                                Bb                   Am7    
-------3----------------3---------------3------3--------3----3----------1-----------------1-------------0t--
-------5----------------5---------------3------3--------3----3----------1-----------------1----------2------
-------4----------------4---------------4------4--------4----4----------3-----------------3----------0------
-------5----------------5---------------2------2--------2----2----------3-----------------3----------1------
----3--------3-----3----------------2---------------2----------------1----------1------1-------------0------
------------------------------------------------------------------------------------------------------------
  constantly,  you're on my mind                                     thinkin' 'bout you all the time
  i can't sleep           no matter what i do,                   i just keep on thinking 'bout you



Verse 5 chords (FIG 1 3x, then Fig 4)



October 31, 2005
5:41 AM
Comments