Nile - Wrought Chords & Tabs

 

Wrought Chords & Tabs

Nile Chords & Tabs

Version: 1 Type: Tab 0 ratings
1 star 2 stars 3 stars 4 stars 5 stars
comments

Wrought Tab

#----------------------------------PLEASE NOTE--------------------------------#
#This file is the author's own work and represents their interpretation of the#
#song. You may only use this file for private study, scholarship, or research.#
#-----------------------------------------------------------------------------#
#-- File created with Instab - http://www.pconline.com/~smcarey/instab.html --#
#-----------------------------------------------------------------------------#

Author/Artist: Nile
Title: Wrought
Album: In the Beginning
Transcribed by: Kernous aka Jamin Williamson
Email: Kernous@hotmail.com
Tune down 3 and 1/2 steps down to A.Listen to the song for timing.Sorry
no solos.Corrections are welcome.Enjoy!

* bend
/ \ slide up or down
pm. palm mute
x pick slide 
h hammer on
p pull off

[ Tab from: http://www.guitartabs.cc/tabs/n/nile/wrought_tab.html ]
  RIFF1
-|------------------------------------------------------------|
-|----------------------------------------/7------------------|
-|------------------------------------------------------------|
-|-8------7---5---2---3---2-----7-8-2-----/5------5---7---3---|
-|--------7---5---2---3---2-----7-8-2-------------5---7---3---|
-|-6------5---3---0---1---0-----5-6-0-------------3---5---1---|
   *:bend up 1/4 step       
                                                                    
  RIFF2
-|-------------------------------------------------------|
-|-------------------------------------------------------|
-|7/9-9-----------------7/9-107/9-9-----------------7----|
-|-------------------------------------------------------|
-|5/7-7-2-2-2-2-2-2-2-2-5/7-8-5/7-7-2-2-2-2-2-2-2-2-5----|
-|------0-0-0-0-0-0-0-0-------------0-0-0-0-0-0-0-0------|
        pm. . . . . . .             . . . . . . . .                                                                      
  RIFF3
-|------------------------------------|
-|------------------------------------|
-|------------------------------------|
-|-7------7-7---7---7-5-3---3---3-7-3-|
-|--------------------5-3---3---3-7-3-|
-|-5------5-5---5---5-3-1-x-1-x-1/5\1-|
                *:bend up 1/4 step
                                                              
  RIFF4
-|------------------------------------------------------------|
-|------------------------------------------------------------|
-|-7/9-9-----------------7/9-10-7/9-9-------------------------|
-|----------------------------------------------------8-8-8---|
-|-5/7-7-2-2-2-2-2-2-2-2-5/7-8--5/7-7-2-2-2-2-2-2-2-2-6-6-6-7-|
-|-------0-0-0-0-0-0-0-0--------------0-0-0-0-0-0-0-0-------5-|
         . . . . . . . .              . . . . . . . . 
  RIFF5                                                                            
-|---------------------------------------------------------------
-|---------------------------------------------------------------
-|---------------------------------------------------------------
-|----------------------------7----------------------------------
-|-8-2-2-7-2-2-8-2-2-7-2-2-7-858-822227222282222722227/8\5-82222-
-|-6-0-0-5-0-0-6-0-0-5-0-0-5/6-6-600005000060000500005/6\3-60000-
     . .   . .   . .   . .        .... .... .... ....       ....                                                                         
------------------------------------------------|
------------------------------------------------|
------------------------------------------------|
-------------------7----------------------------|
-7222282222722227/858-822227222282222722227/8\5-|
-5000060000500005/6-6-600005000060000500005/6\3-|
  .... .... ....       .... .... .... ....                                                                            
  RIFF6
-|---------------------------------------------------------|
-|---------------------------------------------------------|
-|---------------------------------------------------------|
-|-2---------------------------2---------------------------|
-|-2-----------h--p------------2-----------h--p------7-5-3-|
-|-0----1-0-1-1-3--1-0---5-3-1-0----1-0-1-1-3--1-0---5-3-1-|
                                                                              
  FILL1         RIFF7
-|-------------|--------------------------------------------
-|-------------|--------------------------------------------
-|-------------|--------------------------------------------
-|-------------|--------------------------------------------
-|-7--5--3--5--|-7------7------7------8-7-5-7------7------7-
-|-5--3--1--3--|-5-5555-5-5555-5-5555-6-5-3-5-5555-5-5555-5-
                   ....   ....   ....         ....   ....                                                           
------------------------------------------------------------------|
------------------------------------------------------------------|
------------------------------------------------------------------|
------------------------------------------------------------------|
------5-8-7-5------5------5------5-7-8-7------7------7---5-5--8-8-|
-5555-3-6-5-3-3333-3-3333-3-3333-3-5-6-5-5555-5-5555-5---3-3--6-6-|
 ....         ....   ....   ....         ....   ....                                                                             
  RIFF8                         FILL2
-|-----------------------------|----------|
-|-----------------------------|----------|
-|-----------------------------|----------|
-|-----------------------------|----------|
-|-1---------------------------|-2--3--5--|
-|-----------------------------|-0--1--3--|
   tremolo pick
                                                                           
  RIFF9
-|-------------------------------------------------------|
-|-------------------------------------------------------|
-|-------------------------------------------------------|
-|-------------------------------------------------------|
-|-7--------8--7--5--7--------8--7--5--7--5--3/5\2-------|
-|-5--------6--5--3--5--------6--5--3--5--3--1/3\0-------|
                                                                              
  RIFF10                                        FILL3
-|---------------------------------------------|--------------------|
-|---------------------------------------------|--------------------|
-|---------------------------------------------|---5-4--5-4---5-8-7-|
-|---------------------------------------6-5-3-|-6----------6-------|
-|---------------------------------------------|--------------------|
-|-00001100443311000011330000113300001100------|--------------------|
                                                                              
  RIFF11                                        FILL4
-|---------------------------------------------|-------------------|
-|---------------------------------------------|-------------------|
-|---------------------------------------------|-------------------|
-|-222233226655332222335522223355222233226-5-3-|-7-----------------|
-|---------------------------------------------|-7-----------------|
-|---------------------------------------------|-5-----------------|
                                                                              
  RIFF12                                              FILL5   FILL6
-|---------------------------------------------------|-------|----|
-|---------------------------------------------------|-------|----|
-|---------------------------7-8-7-4-8-7-4-5-4---4---|-------|----|
-|-2-------------------------------------------6---6-|-2-----|9---|
-|-2-------------------------------------------------|-2-----|787-|
-|-0--------3-4/7-6--------\-------------------------|-0-----|-65-|
                    hold                                                         
  RIFF13
-|--------------------------------------------------------------|
-|--------------------------------------------------------------|
-|--------------------------------------------------------------|
-|--------------------------------------------------------------|
-|-777777776666----7777------------777777776666----7777---------|
-|-------------6655----666655553333------------6655----66665555-|
                                                                              
  FILL7               FILL8          ENDING RIFF
-|-------------------|7-10-7-8--7---|---------------------------|
-|-------------------|7-10-7-8--7---|---------------------------|
-|-------------------|9-10-9-10-9---|---------------------------|
-|-------------------|9-10-9-10-9-8-|-8--------7--5--2--5--2----|
-|-8-2-2-7-2-2-8-2-2-|7-8--7-8--7-8-|-8--------7--5--2--5--2----|
-|-6-0-0-5-0-0-6-0-0-|------------6-|-6--------5--3--0--3--0----|
     . .   . .   . .

STRUCTURE
riff 1 x 2
riff 2 x 5
riff 3 x 1
riff 2 x 2
riff 4 x 2
riff 5 x 2
riff 6 x 2
fill 1
riff 7 x 2
riff 8 x 2
riff 7 x 2
riff 8 x 2
fill 2
riff 9 x 1
fill 2
riff 9 x 1
riff 10 x 2
fill3
riff 11 x 2
fill 3
fill 4
riff 10 x 2
fill 3
riff 12 x 3
fill 5
fill 6
riff 13 x 1
fill 7
riff 13 x 1
riff 5 x 1
fill 8
riff 1 x 2
ending riff
Comments