Nile - Immortality Through Art Chords & Tabs

 

Immortality Through Art Chords & Tabs

Nile Chords & Tabs

Version: 1 Type: Tab 0 ratings
1 star 2 stars 3 stars 4 stars 5 stars
comments

Immortality Through Art Tab

   
Gtr I (A E A D F# B) - 'Intro Guitar'
Gtr II (A E A D F# B) - 'Distortion! RAR!'
Gtr III (A E A D F# B) - 'DISTORTIAN 2!'
Gtr IV (A E A D F# B) - 'WAR TRUMPETS \m/'


 Immortality Through Art
  Delicately Q=120
             A5             A°
 4/4
             Gtr I
               |----3----|
  W            E    E    E   E  E  E  E  Q
|----------:--------------------------------:
|----------:----------------------15--------:
|----------:-------------------13----13-----:
|----------:------------15----------15--:
|----------:----------------------------:
|----------:----------------------------:


  G#°                N.C.
                    6/4
    Q.    Q   Q.      +W          +H
|------------------:---------------------:
|------------------:---------------------:
|------------18----:-(18)--------(18)----:
|-/14----17--------:---------------------:
|-/14--------------:-(14)--------(14)----:
|-/14--------------:-(14)--------(14)----:
    W                 +W          +H


  A5               E5                 N.C.
 7/8              4/4                5/4
  |-3-|
  E E E E E E Q      Q.    Q   Q.      +W          +Q
|---------5------:------------------:-------------------:
|-----------3----:------------------:-------------------:
|-------2-----2--:------------13----:-(13)--------(13)--:
|-----0----------:-/11----11--------:-------------------:
|---0------------:-/11--------------:-(11)--------(11)--:
|-0--------------:-/11--------------:-(11)--------(11)--:
                     W                 +W          +Q


  A5   G#5/EE5    Eb5  N.C.               A5        G#5   E5   Eb5
 4/4                  5/4                4/4             5/8
    Q    Q   Q.    E    +W         +Q     H    E  E  Q     Q    Q.
|--------------------:------------------:---------------:----------------:
|--------------------:------------------:--------10-^9--:----------------:
|-^14--^13--^9----^8-:-^(8)--------(8)--:------7----^6--:-^9---^8--------:
|-^12--^11--^7----^6-:-^(6)--------(6)--:-0-------------:-^7---^6--------:
|-^12--^11--^7----^6-:-^(6)--------(6)--:-0-------------:-(0)-------(0)--:
|-^12-------^7----^6-:-^(6)--------(6)--:-0-------------:-(0)-------(0)--:
                                          W               +H        +E


  Bb5Bbmaj7b5          A5 Am                 N.C.
 19/16                5/4                   3/4
  Q  E. E. E. E.  E.   Q  E. E. Q  Q.        +H.
|----------3---------:-------------1-------:-(1)----:
|-------3-----3------:----------3----------:--------:
|-----------------2--:-------2-------------:--------:
|-1--1---------------:----0----------------:--------:
|-1--------------(1)-:-0-------------------:--------:
|-1--------------(1)-:-0--------------(0)--:--------:
  W              +E.   W              +Q


  G#A5    D5 C#5     Bb5         A5   G#A5    D5 C#5
 7/8                4/4
  E  E  E  E  Q.      W          Q.   E  E  E  E  E
|------------------:-----------:--------------------:
|-9s10-10s15-14----:-11--------:------9s10-10s15-14-:
|-6s=7--7s12-11----:--8--------:------6s=7--7s12-11-:
|------------------:-----------:-0------------------:
|------------------:-----------:-0------------------:
|------------------:-----------:-0------------------:
                                 W


        Bb5   E5                 G#°/Eb            N.C.
 9/8                       4/4                    5/4
   +Q    Q.     Q   Q       Q  a    Q    Q.    E    +W          +Q
|-------------------------:----------------------:--------------------:
|-(14)--11----/17--17-----:-------------------16-:-(16)--------(16)---:
|-(11)---8----/14--14-----:-------------12-------:--------------------:
|-------------------------:------^-11------------:--------------------:
|--(0)----------------(0)-:------^(11)-----------:--------------------:
|--(0)----------------(0)-:-0--0-----------------:--------------------:
   +W                 +E


  Emaj7b5            E5/A
 4/4                9/8
  E. E. E.  E.Q      E. E. E.  E. E. E.
|----------10p8----:------------------------:
|-------8----------:----------10------------:
|------------------:-------9------9--7------:
|----6-------------:----7-------------------:
|------------------:------------------------:
|-6----------------:-0------------------(0)-:
  W                  W                  +E


  Bbadd11/Eb              E5/A
                                               2/4
  E. E. E. E. E. E.       E. E. Q   Q.    +E     +H
|-----------------------:---------------------:---------:
|----------8------------:----------10----(10)-:-(10)----:
|-------8-----8---------:-------9-------------:---------:
|----6-----------6------:----7----------------:---------:
|-----------------------:---------------------:---------:
|-6-----------------(6)-:-0---------------(0)-:---------:
  W                 +E    W               +E


  Ebmaj7                  Gm/D
 9/8
  E. E. E. E. E. E.       E. E. E. E. E. E.
|----------8------------:----------8------------:
|-------8-----8---------:-------8-----8---------:
|----8-----------8------:----8-----------8------:
|-----------------------:-----------------------:
|-----------------------:-----------------------:
|-6-----------------(6)-:-5-----------------(5)-:
  W                 +E    W                 +E


  Gm/C                    Dm
                                               2/4
  E. E. E. E. E. E.       E. E.  Q   Q.   +E    +H
|----------8------------:------------6----(6)-:-(6)----:
|-------8-----8---------:--------8------------:--------:
|----8-----------8------:-------(7)-----------:--------:
|-----------------------:----5----------------:--------:
|-----------------------:---------------------:--------:
|-3-----------------(3)-:-5---------------(5)-:--------:
  W                 +E    W               +E


                                        H.=H
  Ebmaj7                   Am/E
 9/8                      11/8
  E. E.  E. E. E. E.       E.  E.  Q.    Q.       Q
|-----------8------------:--------10------------------:
|--------8-----8---------:--------------10------------:
|-------(8)-------8------:----10-----------------10---:
|------------------------:----(8)----------------(8)--:
|----6-------------------:-0-----------------(0)------:
|-6------------------(6)-:----------------------------:
  W                  +E    W                 +Q.


  Am/C                   Am
 9/8                    4/4                     7/4
   Q.    Q.    Q.         E.  E  E  E  +Q..       +W.             +Q
|-10-------------------:-----------10-(10)-----:-(10)------------(10)---||
|-------10-------------:--------10-------------:------------------------||
|-------------10-------:-----10----------------:------------------------||
|----------------------:-^0--------------------:------------------------||
|-(0)--------------(0)-:-^0--------------------:------------------------||
|----------------------:-^0--------------------:------------------------||
  +W               +E     W


 Godless - Intro
  Doom Metal \m/ Q=110
  D5         Eb5  Gb5  F5
 4/4        12/8                4/4
  Gtrs II, III
  W          Q.   Q.   H.        +W
|----------|-------------------|--------|
|----------|-------------------|--------|
|----------|-------------------|--------|
|-0--------|-1----4----3-------|-(3)----|
|-0--------|-1----4----3-------|-(3)----|
|-0--------|-1----4----3-------|-(3)----|


  D5          Eb5  Gb5    N.C.
  H    H      H    H      Q  Q  E E Q
|-----------|-----------|--------------|
|-----------|-----------|--------------|
|-----------|-----------|--------------|
|-0----0----|-1----4----|--------------|
|-0----0----|-1----4----|--------------|
|-0----0----|-1----4----|-3--4--4s7-6--|


  D5         Eb5  Gb5  F5
            12/8                4/4
  W          Q.   Q.   H.        +W
|----------|-------------------|--------|
|----------|-------------------|--------|
|----------|------6----5-------|-(5)----|
|-0--------|-1----4----3-------|-(3)----|
|-0--------|-1----4----3-------|-(3)----|
|-0--------|-1----4----3-------|-(3)----|


  D5          Eb5  Gb5                   N.C.
  H    H      H    H      Q  Q  E E Q      H    H
|-----------|-----------|--------------|-------------|
|-----------|-----------|--------------|-------------|
|-----------|-----------|--------------|-------------|
|-0----0----|-1----4----|--------------|-------------|
|-0----0----|-1----4----|--------------|-------------|
|-0----0----|-1----4----|-3--4--4s7-6--|-/10----9----|


 Pre-Verse Riff
  Q=230
  N.C.
  Gtr II
  PM--------------------------------------------------------------|
  S S S S S S S S S S S S S S S S   S S S S S S S S S S S S S S S S
|---------------------------------|---------------------------------|
|---------------------------------|---------------------------------|
|---------------------------------|---------------------------------|
|---------------------------------|---------------------------------|
|---------------------------------|---------------------------------|
|-0-0-0-0-0-0-0-0-0-0-0-0-0-0-3-3-|-4-4-0-0-0-0-0-0-0-0-0-0-0-0-0-0-|


                                    Gb5             F5
  PM-----------------------------------------------------------------
  S S S S S S S S S S S S S S S S   S S S S S S S S S S S S S S S S
|---------------------------------|---------------------------------|
|---------------------------------|---------------------------------|
|---------------------------------|---------------------------------|
|---------------------------------|---------------------------------|
|---------------------------------|---------------------------------|
|-6-6-6-6-0-0-0-0-0-0-0-0-0-0-0-0-|-4-4-4-4-4-4-4-4-3-3-3-3-3-3-3-3-|
|
| Gtr III
| W                                 Q       Q       Q       Q
|---------------------------------|---------------------------------|
|---------------------------------|---------------------------------|
|---------------------------------|---------------------------------|
|---------------------------------|-4-------4-------3-------3-------|
|---------------------------------|-4-------4-------3-------3-------|
|---------------------------------|-4-------4-------3-------3-------|


  D5
 --------------------------------|
  S S S S S  S S S S S S S S S S S
|------------------------------------|
|------------------------------------|
|------------------------------------|
|------------------------------------|
|------------------------------------|
|-0-0-0-0-0--0-0-0-0-0-0-0-0-0-0-0---|
|
| Q       H.
|------------------------------------|
|------------------------------------|
|------------------------------------|
|-0----------------------------------|
|-0----------------------------------|
|-0----------------------------------|


  F5  Gb5 D5                        N.C.
  PM--------------------------------------------------------------|
  S S S S S S S S S S S S S S S S   S S S S S S S S S S S S S S S S
|---------------------------------|---------------------------------|
|---------------------------------|---------------------------------|
|---------------------------------|---------------------------------|
|---------------------------------|---------------------------------|
|---------------------------------|---------------------------------|
|-3-3-4-4-0-0-0-0-0-0-0-0-0-0-0-0-|-6-6-6-6-0-0-0-0-0-0-0-0-0-0-0-0-|
|
| E   E   Q       H                 W
|---------------------------------|---------------------------------|
|---------------------------------|---------------------------------|
|---------------------------------|---------------------------------|
|-3---4---0-----------------------|---------------------------------|
|-3---4---0-----------------------|---------------------------------|
|-3---4---0-----------------------|---------------------------------|


  H=130
  Gb5  F5   Gb5    A5   Ab5
 9/8
  Q.   Q.   Q.     Q.   Q.   Q.
|----------------|-----------------|
|----------------|-----------------|
|----------------|-----------------|
|-4----3----4----|-7----6----6-----|
|-4----3----4----|-7----6----6-----|
|-4----3----4----|-7----6----6-----|
|
| Q.   Q.   Q.     Q.   Q.   Q.
|----------------|-----------------|
|----------------|-----------------|
|----------------|-----------------|
|-4----3----4----|-7----6----6-----|
|-4----3----4----|-7----6----6-----|
|-4----3----4----|-7----6----6-----|


   Verse
    Q=230
    $
    N.C.
   4/4
    Gtrs II, III
    PM--------------------------------------------------------------|
    S S S S S S S S S S S S S S S S   S S S S S S S S S S S S S S S S
||----------------------------------|---------------------------------|
||o---------------------------------|---------------------------------|
||----------------------------------|---------------------------------|
||----------------------------------|---------------------------------|
||o---------------------------------|---------------------------------|
||--0-0-0-0-0-0-0-0-0-0-0-0-0-0-3-3-|-4-4-0-0-0-0-0-0-0-0-0-0-0-0-0-0-|


  PM-----------------------------------------------------------------
  S S S S S S S S S S S S S S S S   S S S S S S S S S S S S S S S S
|---------------------------------|---------------------------------|
|---------------------------------|---------------------------------|
|---------------------------------|---------------------------------|
|---------------------------------|---------------------------------|
|---------------------------------|---------------------------------|
|-6-6-6-6-0-0-0-0-0-0-0-0-0-0-0-0-|-4-4-4-4-4-4-4-4-3-3-3-3-3-3-3-3-|


 -------------------------------|
  S S S S S S S S S S S S S S S S
|-----------------------------------|
|-----------------------------------|
|-----------------------------------|
|-----------------------------------|
|-----------------------------------|
|-0-0-0-0-0-0-0-0-0-0-0-0-0-0-0-0---|


  PM------------------------------------------------------|
  S S S S S S S S S S S S S S S S   S S S S S S S S S S S S S S S S
|---------------------------------|---------------------------------|
|---------------------------------|---------------------------------|
|---------------------------------|---------------------------------|
|---------------------------------|---------------------------------|
|---------------------------------|---------------------------------|
|-3-3-4-4-0-0-0-0-0-0-0-0-0-0-0-0-|-6-6-6-6-0-0-0-0-0-0-0-0-0-0-0-0-|


  H=150
                                                 To Coda
  Gb5  F5   Gb5    A5   Ab5           C5  B5 A5   Ab5
 9/8                                 6/8
  Q.   Q.   Q.     Q.   Q.   Q.        Q  Q  Q    Q  Q  Q
|----------------|-----------------||-----------|----------|
|----------------|----------------o||-----------|----------|
|----------------|-----------------||-----------|----------|
|-4----3----4----|-7----6----6-----||-10--9--7--|-6--6--6--|
|-4----3----4----|-7----6----6----o||-10--9--7--|-6--6--6--|
|-4----3----4----|-7----6----6-----||-10--9--7--|-6--6--6--|


  Q=230
  N.C.
 4/4
  S S S S S S S S S S S S S S S S   S S S S S S S S S S S S S S S S
|---------------------------------|----------------------------------|
|---------------------------------|----------------------------------|
|---------------------------------|----------------------------------|
|-----------------4-4-4-4-3-3-3-3-|-----------------4-4-4-4-3-3-3-3--|
|-6-6-6-6-5-5-5-5-----------------|-6-6-6-6-5-5-5-5------------------|
|---------------------------------|----------------------------------|


  S S S S S S S S S S S S S S S S   S S S S S S S S S S S S S S S S
|---------------------------------|---------------------------------|
|---------------------------------|---------------------------------|
|---------------------------------|---------------------------------|
|-----------------4-4-4-4-3-3-3-3-|-4-4-4-4-3-3-3-3-7-7-7-7-6-6-6-6-|
|-6-6-6-6-5-5-5-5-----------------|---------------------------------|
|---------------------------------|---------------------------------|


 2/4                   4/4
   S  S  S  S S S S S   S S S S S S S S S S S S S S S S
|---------------------|---------------------------------|
|---------------------|---------------------------------|
|---------------------|---------------------------------|
|-10-10-10-10-9-9-9-9-|-----------------4-4-4-4-3-3-3-3-|
|---------------------|-6-6-6-6-5-5-5-5-----------------|
|---------------------|---------------------------------|


  S S S S S S S S S S S S S S S S
|---------------------------------|
|---------------------------------|
|---------------------------------|
|-----------------4-4-4-4-3-3-3-3-|
|-6-6-6-6-5-5-5-5-----------------|
|---------------------------------|


  H=150
                         D.S. al Coda
  A5   Bb5   A5     Eb5
 9/8
  Q.    Q.   Q.       Q.    Q.    Q.
|-----------------|--------------------|
|-----------------|-/16----16----16\---|
|-9----10----9----|-/15----15----15\---|
|-7-----8----7----|-/13----13----13\---|
|-7-----8----7----|--------------------|
|-7-----8----7----|--------------------|


 Riff
  Q=220
  &
  D5        Eb5   F5         D5        Eb5   F5
 7/8
    PM----|                    PM----|
            |-3-|  |--3--|             |-3-|  |--3--|
  E S S S S E E E  E  E  E   E S S S S E E E  E  E  E
|--------------------------|--------------------------|
|--------------------------|--------------------------|
|--------------------------|--------------------------|
|-7---------8-8-8-10-10-10-|-7---------8-8-8-10-10-10-|
|-5---------6-6-6--8--8--8-|-5---------6-6-6--8--8--8-|
|---0-0-0-0----------------|---0-0-0-0----------------|

[ Tab from: http://www.guitartabs.cc/tabs/n/nile/immortality_through_art_tab.html ]
  D5        Eb5   F5         D5        Eb5   F5
    PM----|                    PM----|
            |-3-|  |--3--|             |-3-|
  E S S S S E E E  E  E  E   E S S S S E E E  Q
|--------------------------|---------------------|
|--------------------------|---------------------|
|--------------------------|---------------------|
|-7---------8-8-8-10-10-10-|-7---------8-8-8-10--|
|-5---------6-6-6--8--8--8-|-5---------6-6-6--8--|
|---0-0-0-0----------------|---0-0-0-0-----------|


 Break
  Wx3
|--------|
|--------|
|--------|
|--------|
|--------|
|--------|


   Verse
    Q=240
    N.C.
   4/4
    S S S S S S S S S S S S S S S S   S S S S S S S S S S S S S S S S
||----------------------------------|---------------------------------|
||o---------------------------------|---------------------------------|
||----------------------------------|---------------------------------|
||----------------------------------|---------------------------------|
||o-5-5-5-5-------------------------|-5-5-5-5-------------------------|
||----------8-8-8-8-7-7-7-7-6-6-6-6-|---------8-8-8-8-7-7-7-7-6-6-6-6-|


  S S S S S S S S S S S S S S S S   S S S S S S S S S S S S S S S S
|---------------------------------|---------------------------------|
|---------------------------------|---------------------------------|
|---------------------------------|---------------------------------|
|---------------------------------|---------------------------------|
|-5-5-5-5-------------------------|-5-5-5-5-------------------------|
|---------8-8-8-8-7-7-7-7-6-6-6-6-|---------8-8-8-8-7-7-7-7-6-6-6-6-|


  PM--------------------------------------------------------------|
  S S S S S S S S S S S S S S S S   S S S S S S S S S S S S S S S S
|---------------------------------|---------------------------------|
|---------------------------------|---------------------------------|
|---------------------------------|---------------------------------|
|---------------------------------|---------------------------------|
|---------------------------------|---------------------------------|
|-0-0-0-0-0-0-0-0-1-1-1-1-1-1-1-1-|-4-4-4-4-4-4-4-4-3-3-3-3-3-3-3-3-|


  S S S S S S S S S S S S S S S S   S S S S S S S S S S S S S S S S
|---------------------------------|---------------------------------|
|---------------------------------|---------------------------------|
|---------------------------------|---------------------------------|
|---------------------------------|---------------------------------|
|-5-5-5-5-------------------------|-5-5-5-5-------------------------|
|---------8-8-8-8-7-7-7-7-6-6-6-6-|---------8-8-8-8-7-7-7-7-6-6-6-6-|


  S S S S S S S S S S S S S S S S   S S S S S S S S S S S S S S S S
|---------------------------------|---------------------------------|
|---------------------------------|---------------------------------|
|---------------------------------|---------------------------------|
|---------------------------------|---------------------------------|
|-5-5-5-5-------------------------|-5-5-5-5-------------------------|
|---------8-8-8-8-7-7-7-7-6-6-6-6-|---------8-8-8-8-7-7-7-7-6-6-6-6-|


  D5     Eb5      F#5    F5
     PM|    PM|      PM|
  Q  E E Q  E E   Q  E E Q  Q
|---------------|---------------||
|---------------|--------------o||
|---------------|---------------||
|-0------1------|-4------3--3---||
|-0------1------|-4------3--3--o||
|-0--0-0-1--1-1-|-4--4-4-3--3---||


 Riff
          G5     Ab5            G5     Ab5            G5     Ab5    C5
 9/8                                         12/8
                 ~                     ~                             ~~
  S S S S Q  S S H      S S S S Q  S S H      S S S S Q  S S Q  S S  H
|---------------------|---------------------|-----------------------------|
|---------------------|---------------------|-----------------------------|
|---------7------8----|---------7------8----|---------7------8------12----|
|---------5------6----|---------5------6----|---------5------6------10----|
|---------------------|---------------------|-----------------------------|
|-0-0-0-0----0-0------|-0-0-0-0----0-0------|-0-0-0-0----0-0----0-0-------|


          G5     Ab5            G5     Ab5            G5     Ab5
 9/8                                         10/8
                 ~                     ~                     ~
  S S S S Q  S S H      S S S S Q  S S H      S S S S Q  S S H    S S
|---------------------|---------------------|---------------------------|
|---------------------|---------------------|---------------------------|
|---------7------8----|---------7------8----|---------7------8----------|
|---------5------6----|---------5------6----|---------5------6----------|
|---------------------|---------------------|---------------------------|
|-0-0-0-0----0-0------|-0-0-0-0----0-0------|-0-0-0-0----0-0------0-0---|


  Q=220
  C5    B5    Ab5    B5    C5    B5      Bb5
 9/8                                    12/8                 6/8
   Q.    Q.   Q.      Q.    Q.    Q.      H.       +H.         +H.
|------------------|-------------------|--------------------|---------|
|------------------|-------------------|-11-------(11)------|-(11)----|
|-12----11----8----|-11----12----11----|-10-------(10)------|-(10)----|
|-10-----9----6----|--9----10-----9----|--8--------(8)------|--(8)----|
|-10-----9----6----|--9----10-----9----|--8--------(8)------|--(8)----|
|-10-----9----6----|--9----10-----9----|--8--------(8)------|--(8)----|


  A5       Gb5  F5     Eb5  D5
 12/8
   H.      Q.   Q.     Q.   H.      +Q.
|--------------------|--------------------|
|-10-----------------|--------------------|
|--9-------6----5----|--------------------|
|--7-------4----3----|-1----0-------(0)---|
|--7-------4----3----|-1----0-------(0)---|
|--7-------4----3----|-1----0-------(0)---|


             F5   Gb5  GbBb5
 6/8        12/8                   3/8
  +H.        Q.   Q.   E.E. +Q.     +Q.
|----------|----------------------|--------|
|----------|----------------------|--------|
|----------|----------------------|--------|
|-(0)------|-3----4----4s8--(8)---|-(8)----|
|-(0)------|-3----4----4s8--(8)---|-(8)----|
|-(0)------|-3----4----4s8--(8)---|-(8)----|


  A5Bb5         A5Bb5  Gb5     F5   Eb5    D5
 12/8
  E.E. +H.      E.E.   H.      Q.   Q.     H.      +H.        +H.      +H.
|--------------------|-------------------|------------------|-----------------|
|--------------------|-------------------|------------------|-----------------|
|--------------------|-------------------|------------------|-----------------|
|-7h8--(8)------7h8--|-4-------3----1----|-0-------(0)------|-(0)------(0)----|
|-7h8--(8)------7h8--|-4-------3----1----|-0-------(0)------|-(0)------(0)----|
|-7h8--(8)------7h8--|-4-------3----1----|-0-------(0)------|-(0)------(0)----|


             Eb5     Gb5       F5      Eb5
 6/8        12/8
  +H.        H.      H.        H.      H.
|----------|-----------------|---------------|
|----------|-----------------|---------------|
|----------|-----------------|---------------|
|-(0)------|-1-------4-------|-3-------1-----|
|-(0)------|-1-------4-------|-3-------1-----|
|-(0)------|-1-------4-------|-3-------1-----|


  Q=200
  N.C.
 4/4
  H    H      H    H      Q  H.        W
|-----------|-----------|------------|------|
|-----------|-----------|------------|------|
|-----------|-----------|------------|------|
|-----------|-----------|------------|------|
|-----------|-----------|------------|------|
|-0----1----|-4----3----|-3s=7-------|-6----|


   WAR
    Q=120
    D           Eb             G     Ab
    Gtrs II, III
     W           W          A   H     H       +W
||------------|-----------|----------------|---------|
||o-----------|-----------|----------------|---------|
||---7--------|-/8--------|----------------|---------|
||---x--------|--x--------|-----5----/6----|--(6)----|
||o--5--------|-/6--------|-0p--x-----x----|--(x)----|
||------------|-----------|-----5----/6----|--(6)----|
|
|   Gtr IV
|    W           W              H     H       +W
||--22--------|-23--------|----15----16----|-(16)----|
||o-----------|-----------|----------------|---------|
||--19--------|-20--------|----12----13----|-(13)----|
||------------|-----------|----------------|---------|
||o-17--------|-18--------|----10----11----|-(11)----|
||------------|-----------|----------------|---------|


     D           Eb             G     Ab      G     Gb
  A   W           W          A   H     H       H     H
|--------------|-----------|----------------|--------------||
|--------------|-----------|----------------|-------------o||
|-----7--------|-/8--------|----------------|--------------||
|-0p--x--------|--x--------|-----5----/6----|-\5----\4-----||
|-----5--------|-/6--------|-0p--x-----x----|--x-----x----o||
|--------------|-----------|-----5----/6----|-\5----\4-----||
|
|     W           W              H     H       H     H
|----22--------|-23--------|----15----16----|-15----14-----||
|--------------|-----------|----------------|-------------o||
|----19--------|-20--------|----12----13----|-12----11-----||
|--------------|-----------|----------------|--------------||
|----17--------|-18--------|----10----11----|-10-----9----o||
|--------------|-----------|----------------|--------------||


  A           C            Eb     D        C      Eb
   W            W            H      H        H      H
|-----------|------------|---------------|---------------|
|-----------|------------|---------------|---------------|
|-----------|------------|---------------|---------------|
|-/7--------|-/10--------|-/13----\12----|-\10----/13----|
|--x--------|---x--------|---x------x----|---x------x----|
|-/7--------|-/10--------|-/13----\12----|-\10----/13----|
|
|  W            W            H      H        H      H
|-17--------|--20--------|--23-----22----|--20-----23----|
|-----------|------------|---------------|---------------|
|-14--------|--17--------|--20-----19----|--17-----20----|
|-----------|------------|---------------|---------------|
|-12--------|--15--------|--18-----17----|--15-----18----|
|-----------|------------|---------------|---------------|


  D      C        Gb          N.C.
    H      H       W           H.       +Q
|---------------|-----------|----------------|
|---------------|-----------|----------------|
|---------------|-----------|----------------|
|-\12----\10----|-\4--------|-/7b9r=====(7)--|
|---x------x----|--x--------|----------------|
|-\12----\10----|-\4--------|----------------|
|
|   H      H       W           W
|--22-----20----|-14--------|----------------|
|---------------|-----------|----------------|
|--19-----17----|-11--------|----------------|
|---------------|-----------|----------------|
|--17-----15----|--9--------|----------------|
|---------------|-----------|----------------|


 More Riffage
  Q=150
  D5    GbF5EbD5Gb5 F5  A5AbD5Eb5D5      GbF5    D5Eb5 F5GbF5D5Eb5D5
    PM|               PM             PM--------|                    PM
  E E E E E E E E   E E E E E Q  E   E E E E E E E E   E E E E Q  E E
|-----------------|----------------|-----------------|----------------|
|-----------------|----------------|-----------------|----------------|
|-----------------|----------------|-----------------|----------------|
|-0-----4p3-1p0-4p|=3---7p6p0-1--0-|-----4p3-----0h1-|-3S4S3p0-1--0---|
|-0-----4p3-1p0-4p|=3---7p6p0-1--0-|-----4p3-----0h1-|-3S4S3p0-1--0-0-|
|-0-0-0-4p3-1p0-4p|=3-0-7p6p0-1--0-|-0-0-4p3-1-0-0h1-|-3S4S3p0-1--0-0-|


    GbF5EbD5GbF5    A5AbD5Eb5D5      GbF5    C#D5C#5   BbA5Ab5
                                                      2/4
  PM------|     PM             PM|       PM|       PM
  E E E E E E E E   E E E Q  E E E   E E E E E E E E   E E Q
|-----------------|----------------|-----------------|---------|
|-----------------|----------------|-----------------|---------|
|-----------------|----------------|-----------------|---------|
|-----------4p3---|-7p6p0-1--0-----|-4p3-----6S7S6---|-8-7-6---|
|-0-4-3-1-0-4p3---|-7p6p0-1--0-----|-4p3-----4S5S4---|-8-7-6---|
|-0-4-3-1-0-4p3-0-|-7p6p0-1--0-0-0-|-4p3-1-0-------0-|-8-7-6---|


  D5    GbF5EbD5Gb5 F5  A5AbD5Eb5D5      GbF5    D5Eb5 F5GbF5D5Eb5
 4/4                                                  6/8
    PM|               PM             PM--------|
  E E E E E E E E   E E E E E Q  E   E E E E E E E E   E E E E Q
|-----------------|----------------|-----------------|------------|
|-----------------|----------------|-----------------|------------|
|-----------------|----------------|-----------------|------------|
|-0-----4p3-1p0-4p|=3---7p6p0-1--0-|-----4p3-----0h1-|-3S4S3p0-1--|
|-0-----4p3-1p0-4p|=3---7p6p0-1--0-|-----4p3-----0h1-|-3S4S3p0-1--|
|-0-0-0-4p3-1p0-4p|=3-0-7p6p0-1--0-|-0-0-4p3-1-0-0h1-|-3S4S3p0-1--|


  D5    GbF5    Gb5 F5  A5AbD5Eb5D5      GbF5    C#D5  C#5 BbA5Ab5
 4/4                                                  3/4
    PM|     PM|       PM             PM|     PM|         PM
  E E E E E E E E   E E E E E Q  E   E E E E E E E E   E E E E Q
|-----------------|----------------|-----------------|------------|
|-----------------|----------------|-----------------|------------|
|-----------------|----------------|-----------------|------------|
|-0-----4p3-----4p|=3---7p6p0-1--0-|-----4p3-----6S7S|=6---8-7-6--|
|-0-----4p3-----4p|=3---7p6p0-1--0-|-----4p3-----4S5S|=4---8-7-6--|
|-0-0-0-4p3-1-0-4p|=3-0-7p6p0-1--0-|-0-0-4p3-1-0-----|---0-8-7-6--|


  C5          Ab5  F5
 4/4         5/4
   W          H    q  H
|-----------|--------------|
|-----------|-9------------|
|-12--------|-8------------|
|-10--------|-6----3-------|
|-10--------|-6----3-------|
|-10--------|-6----3-------|


 Outro
  Q=150
                                D
 18/16
  PM------------------------|
  |-3-|     |-3-|     |-3-|     |-3-|
  E E E +T  E E E +T  E E E +T  E E E +T
|------------------------------------------|
|------------------------------------------|
|-------------------------------7-7-7-(7)\-|
|-------------------------------x-x-x-(x)--|
|-------------------------------5-5-5-(5)\-|
|-4-3-0-(0)-3-5-3-(3)-3-6-5-(5)------------|


                                      D             Eb
                                           3/8
                                PM|             PM|
  |-3-|     |-3-|     |-3-|
  E E E +T  E E E +T  E E E +T  T T T E S   +S  T T E E
|-----------------------------------------|---------------|
|-----------------------------------------|---------------|
|-------------------------------------7-7-|-(7)-----8-8---|
|-------------------------------x-x-x-x-x-|-(x)-x-x-x-x---|
|-------------------------------5-5-5-5-5-|-(5)-6-6-6-6---|
|-5-7-5-(5)-5-4-3-(3)-3-6-5-(5)-----------|---------------|


                                D
 18/16
  PM------------------------|
  |-3-|     |-3-|     |-3-|     |-3-|
  E E E +T  E E E +T  E E E +T  E E E +T
|------------------------------------------|
|------------------------------------------|
|-------------------------------7-7-7-(7)\-|
|-------------------------------x-x-x-(x)--|
|-------------------------------5-5-5-(5)\-|
|-4-3-0-(0)-3-5-3-(3)-3-6-5-(5)------------|


                                      D             Eb      D       Eb
                                           4/4
  PM------------------------------|             PM|     PM|     PM|
  |-3-|     |-3-|     |-3-|
  E E E +T  E E E +T  E E E +T  T T T E S   +S  T T E E T T E E T T E E
|-----------------------------------------|-----------------------------|
|-----------------------------------------|-----------------------------|
|-------------------------------------7-7-|-(7)-----8-8-----7-7-----8-8-|
|-------------------------------x-x-x-x-x-|-(x)-x-x-x-x-x-x-x-x-x-x-x-x-|
|-------------------------------5-5-5-5-5-|-(5)-6-6-6-6-5-5-5-5-6-6-6-6-|
|-4-3-0-(0)-3-5-3-(3)-3-6-5-(5)-----------|-----------------------------|


      D       Eb      D       Eb               N.C.
 9/8                             4/4
  PM|     PM|     PM|     PM|
  T T E E T T E E T T E E T T E   H     H      W
|-------------------------------|------------|------*|
|-------------------------------|------------|------*|
|-----7-7-----8-8-----7-7-----8-|-8\---------|------*|
|-x-x-x-x-x-x-x-x-x-x-x-x-x-x-x-|-x----------|------*|
|-5-5-5-5-6-6-6-6-5-5-5-5-6-6-6-|-6\---------|------*|
|-------------------------------|------------|------*|




--------------------------------------------------------------------------------


Duration Legend
---------------
W - whole; H - half; Q - quarter; E - 8th; S - 16th; T - 32nd; X - 64th; a - acciaccatura
+ - note tied to previous; . - note dotted; .. - note double dotted
Uncapitalized letters represent notes that are staccato (1/2 duration)
Irregular groupings are notated above the duration line
Duration letters will always appear directly above the note/fret number it represents the
duration for.  Duration letters with no fret number below them represent rests.  Multi-
bar rests are notated in the form Wxn, where n is the number of bars to rest for.  Low
melody durations appear below the staff

Tablature Legend
----------------
 h   - hammer-on
 p   - pull-off
 b   - bend
 pb  - pre-bend
 r   - bend release (if no number after the r, then release immediately)
 /\  - slide into or out of (from/to "nowhere")
 s   - legato slide
 S   - shift slide
 - natural harmonic
[n]  - artificial harmonic
n(n) - tapped harmonic
 ~   - vibrato
 tr  - trill
 T   - tap
 TP  - trem. picking
 PM  - palm muting
\n/  - tremolo bar dip; n = amount to dip
 \n  - tremolo bar down
 n/  - tremolo bar up
/n\  - tremolo bar inverted dip
 =   - hold bend; also acts as connecting device for hammers/pulls
  - volume swell (louder/softer)
 x   - on rhythm slash represents muted slash
 o   - on rhythm slash represents single note slash

Misc Legend
-----------
 |  - bar
||  - double bar
||o - repeat start
o|| - repeat end
*|  - double bar (ending)
 :  - bar (freetime)
 $  - Segno
 &  - Coda
Tempo markers -  = BPM(8/16=s8/s16), where s8 = swing 8ths, s16 = swing 16ths


Comments