Nightwish - Walking In The Air Chords & Tabs

 

Walking In The Air Chords & Tabs

Nightwish Chords & Tabs

Version: 4 Type: Tab 0 ratings
1 star 2 stars 3 stars 4 stars 5 stars
comments

Walking In The Air Tab

   
||||NightWish||||Walking in the air||||

Standard Tuning E-A-D-G-B-E
[ Tab from: http://www.guitartabs.cc/tabs/n/nightwish/walking_in_the_air_tab_ver_4.html ]
E|------7-7----------------------7-7----------------------------------------|
B|---7------10-10-7~----------7------10-10-7~---------------------8-8-7-7---|
G|-----------------------------------------------7-9~-----------9---------9~|
D|--------------------------------------------------------------------------|
A|--------------------------------------------------------------------------|
E|--------------------------------------------------------------------------|

E|----------------------|
B|----------------------|
G|----7-7-6-6-----------|
D|--9---------9---7--9--|
A|----------------------|
E|----------------------|

Tabbed by: ^Rok
I think it's quite correct. Enjoy !
Comments