Nightwish - Sleeping Sun Chords & Tabs

 

Sleeping Sun Chords & Tabs

Nightwish Chords & Tabs

Version: 2 Type: Tab 0 ratings
1 star 2 stars 3 stars 4 stars 5 stars
comments

Sleeping Sun Tab

   
Band:           Nightwish
Song:           Sleeping Sun
Album:          Oceanborn
Tabed by:       Hebert Bravo
E-mail:         wizardhp_7@hotmail.com

Tune:           (D)

Fr corrections, suggest, mistakes..... please mail me.

"By the way my Nemo tab and Dark Chest Of Wonders tab are in tune (E)"

Thanks to ultimate-guitar
Now this is the tab

Verse 1 (01:36)
|-----------------------------------------------------------------|
|------------------------------------------------------------14b--|
|-----------------------------------------------------------------|
|-----------------------------------------------------------------|
|-----------------------------------------------------------------|
|-000-000---000-000---333-333---333-333---000-000---000-000-------|
p.m.. ...   ... ...   ... ...   ... ...   ... ...   ... ...

|-------------------------------| 
|-------------------------------|
|----------------------9--------| 
|----------------------9--------| 
|-333-333--------------7--------| 
|-----------555-555-------------|
p.m.. ...   ... ...
[ Tab from: http://www.guitartabs.cc/tabs/n/nightwish/sleeping_sun_tab_ver_2.html ]
Solo (03:03)
|---------------------------------------------------------------|
|-15\12--17\12--12/15--------------------12-12/17-17-15\12-12---|
|----------------------9-11-12-12*-12/14------------------------|
|---------------------------------------------------------------|
|---------------------------------------------------------------|
|---------------------------------------------------------------|
 

|------------------------15-14-12----12-14------------------------------|
|-13-12-10--15-13-12--12----------15-------12/17~-----------------------|
|-----------------------------------------------------/9-11-12-12/19----|
|-----------------------------------------------------------------------|
|-----------------------------------------------------------------------|
|-----------------------------------------------------------------------|

Verso 2 (03:20)
|------------------------------------------------|
|------------------------------------------------|
|------8-----5-----8------------8--5-----10------|
|-5----8--8--5--5--8--5----5----8--5--8--10--5---|
|-5----6--8--3--5--6--5----5----6--3--8---8--5---|
|-3-------6-----3-----3-33-3----------6------3---|
                        ..
END
Comments